Song name
# A B C D E F G H I J K L M N O P Q R S T U V W X Y Z

Spunge - Circle In The Sand tab

-------------------------------------------------------------------------------
			     Circle in the sand - Spunge
-------------------------------------------------------------------------------
Tabbed by:Supertophe100
Email:kissmeiminaband@hotmail.co.uk

Hi this is my first tab but im fairly sure its all accurate. You just need to listen to 
song to see which bits are repeated. thanks

Tuning:eadgbe
intro
e|--5--3--55--3--------------------------------------------------------------|
B|--7--3--77--3---------------7----------------------------------------------|
G|--7--4--77--4-------7----------7-----7-------3----7------3-----3------5----|
D|--7--5--77--5----------7----------------7------------7-----------3------5--|
A|--5--5--55--5----55------55-------55------5----55------5----11-----33------|
E|--5--3--55--3--------------------------------------------------------------|
p.m                ..      ..       ..      .    ..      .    ..     ..
e|---------------------------------------------------------------------------|
B|---------------------------------------------------------------------------|
G|--77777777-7-----777-----777-----777-------------7-------------333---555---|
D|--77777777-7-----777-777-777-777-777-777--55-777-7----7---5----333---555---|
A|--55555555-5-----555-777-555-777-555-777--55-777-5----7---5----111---333---|
E|---------------------555-----555-----555--33-555------5---3----------------|
p.m .....          ..  ..  ..  ..  ..  ..
e|--x7x7---555---x7x7---555--x7x7---555---x7x7---5-5-------------------------|
B|--x7x7---555---x7x7---555--x7x7---555---x7x7---5-5-------------------------|
G|--x8x8---666---x8x8---666--x8x8---666---x8x8---6-6-------------------------|
D|--x9x9---777---x9x9---777--x9x9---777---x9x9---7-7-------------------------|
A|---------------------------------------------------------------------------|
E|---------------------------------------------------------------------------|
the song then repeats each of the bits randomly so listen to song for order. then it 
into the solo:
e|------------------------------------------------5--------------------------|
B|-------------------------------------77-55-6666---66-----------------------|
G|-------------55-777777-5----------55-----------------5-7-5---5-7-----------|
D|-5555555--77-------------5-777777--------------------------7---------------|
A|---------------------------------------------------------------------------|
E|---------------------------------------------------------------------------|

e|-5------5------------------------------------------------------------------|
B|---66-6---88---------------------------------------------------------------|
G|---------------------------------------------------------------------------|
D|---------------------------------------------------------------------------|
A|----------------PICKSLIDE--------------------------------------------------|
E|----------------PICKSLIDE--------------------------------------------------|

| /  slide up
| \  slide down
| h  hammer-on
| p  pull-off
| ~  vibrato
| +  harmonic
| x  Mute note
===============================================================================
Tap to rate this tab
# A B C D E F G H I J K L M N O P Q R S T U V W X Y Z