Song name
# A B C D E F G H I J K L M N O P Q R S T U V W X Y Z

Spur 58 - I Fall tab

this is the way my youth group plays this song, i wrote the solo so dont bother me about 
wrong it is

intro: Am F Am F

then electric just strums the Am and the rest play like Am E C D or something like that 
the verses

bridge: F G F G

               Am  F      C        G           Am
Chorus:    I fall,  Before you in wonder and awe...


then this is my solo

e|------------------------------------------------------------------------|
B|--8b10(10)r6-6-6-6--8b10(10)r6h8~--8b10(10)r6-6-6-6--8b10(10)r6/15~-----|
G|------------------------------------------------------------------------|
D|------------------------------------------------------------------------|
A|------------------------------------------------------------------------|
E|------------------------------------------------------------------------|

e|--------13-13-13-13-13-13|----------13h15-15-15-15-15-13~---------------|
B|--15-15------------------|----15-15-------------------------------------|
G|-------------------------|(x3)------------------------------------------|
D|-------------------------|----------------------------------------------|
A|-------------------------|----------------------------------------------|
E|-------------------------|----------------------------------------------|

e|--------13-13-13-13-13-13|----------13h15-15-15-15-15-13-15-17~---------|
B|--15-15------------------|----15-15-------------------------------------|
G|-------------------------|(3x)------------------------------------------|
D|-------------------------|----------------------------------------------|
A|-------------------------|----------------------------------------------|
E|-------------------------|----------------------------------------------|


then you fade out with the 17~ and the piano plays and sings the chorus one
time through. and at the "and i fall" everyone joins in. you end on the Am.


the end
Tap to rate this tab
# A B C D E F G H I J K L M N O P Q R S T U V W X Y Z