Song name
# A B C D E F G H I J K L M N O P Q R S T U V W X Y Z

Squad Five-o - Apocalyspe Now tab

I was just listening to the song while messing around on the guitar
and figured out how this goes, it's pretty simple but give me some
feedback, this is my first tab ever.
schoeny@email.arizona.edu

Standard Tuning
b=bend
P.M=palm mute

Intro (0:00-0:25)
E----------------------------------------------------------------|
B----------------------------------------------------------------|
G-----------555555-33333-5556b65---------555555-33333-5556b65----|
D---555-888-555555-33333-5556b65-x2--5-8-555555-33333-5556b65-x2-|
A---555-888-333333-11111-3334b43-----5-8-333333-11111-3334b43----|
E---333-666--------------------------3-6-------------------------|


Verse 1 (0:26-0:38)
E----------------------------------------------------------------|
B----------------------------------------------------------------|
G---------------------55555555-666b66----------------------------|
D---55555555-88888888-55555555-666b66-x2-------------------------|
A---55555555-88888888-33333333-444b44----------------------------|
E---33333333-66666666--------------------------------------------|
P.M............................(pull off palm mute while struming)

Chorus (0:39-1:03)
E----------------------------------------------------------------|
B----------------------------------------------------------------|
G-----------555555-33333-5556b65---------555555-33333-5556b65----|
D---555-888-555555-33333-5556b65-x2--5-8-555555-33333-5556b65-x2-|
A---555-888-333333-11111-3334b43-----5-8-333333-11111-3334b43----|
E---333-666--------------------------3-6-------------------------|

Verse 2 (1:04-1:16)
E----------------------------------------------------------------|
B----------------------------------------------------------------|
G---------------------55555555-666b66----------------------------|
D---55555555-88888888-55555555-666b66-x2-------------------------|
A---55555555-88888888-33333333-444b44----------------------------|
E---33333333-66666666--------------------------------------------|
P.M............................(pull off palm mute while struming)

Chorus (1:17-1:41)
E----------------------------------------------------------------|
B----------------------------------------------------------------|
G-----------555555-33333-5556b65---------555555-33333-5556b65----|
D---555-888-555555-33333-5556b65-x2--5-8-555555-33333-5556b65-x2-|
A---555-888-333333-11111-3334b43-----5-8-333333-11111-3334b43----|
E---333-666--------------------------3-6-------------------------|

Bridge (1:42-2:06)
E-----------------------------------------------------------------|
B-----------------------------------------------------------------|
G--------555b65-------------------555b65-------------------555b65-|
D-555----555b65-555-888---555-888-555b65-555-888---555-888-555b65-|
A-555----333b43-555-888---555-888-333b43-555-888---555-888-333b43-|
E-333-----------333-666---333-666--------333-666---333-666--------|

Outro (2:07-2:34)
E----------------------------------------------------------------|
B----------------------------------------------------------------|
G-------555555-33333-5556b65-------------------------------------|
D---5-8-555555-33333-5556b65-x4--555-888-------------------------|
A---5-8-333333-11111-3334b43-----555-888-------------------------|
E---3-6--------------------------333-666-------------------------|


That's it, have fun.
Tabbed by
Jason Schoenleber
Tap to rate this tab
 
# A B C D E F G H I J K L M N O P Q R S T U V W X Y Z