Squarepusher - A Journey To Reedham 7am Mix tab

-----------------------------------------------------------------------------
			     JOURNEY TO REEDHAM - Squarepusher
-----------------------------------------------------------------------------
Tabbed by: emery01
Email: michaelemery@iinet.net.au

Tuning: Standard

**This is not a tab for the whole song, just the lead synth that appears around 
two minutes into the song.**



e|--------------------------------------------------------------------------|
B|------------------------------7-------------------------------------------|
G|-----7------------------------------2s4s2-4s6s4-6--7----------------------|
D|---------7---5--4--2-4----4------4-------------------7--------------------|
A|-5-----------------------------------------------------5------------------|
E|--------------------------------------------------------------------------|
                                                          ^ 
                                                        Repeat

Good luck to anyone who tries to tab the whole song.
Tap to rate this tab
 
# A B C D E F G H I J K L M N O P Q R S T U V W X Y Z