Squarepusher - Squarepusher Theme tab

i could only figure out the intro sorry but if there are any mistakes or i you
know the rest just comment thanks.

e--------------------------------------------------------------|
B--8~---8----8~---8----8----8~---8----8~---8----8~-------------|
G--7~---7----7~---7----7----7~---7----7~---7----9~-------------|
D------------6~---6----6--------------6~---6----10~------------|
A--7~---7-------------------7~---7-----------------------------|
E------------6~---6----6--------------6~---6----10~------------|

e------------------------------------------------|
B--8~---8----8~---8----8----7~--6~--8~--8--4~----|
G--7~---7----7~---7----7----7~--7~--9~--7--5~----|
D------------6~---6----6----7~--8~--10~-8--6~----|
A--7~---7----------------------------------------|
E------------6~---6----6----7~--8~--10~-6--4~----|

this is all i could figure out but this will be updated will the full version shortly. 
hope you enjoy :)
Tap to rate this tab
 
# A B C D E F G H I J K L M N O P Q R S T U V W X Y Z