Song name
# A B C D E F G H I J K L M N O P Q R S T U V W X Y Z

Squarepusher - Abstract Lover tab

#----------------------------------PLEASE NOTE---------------------------------#
#This file is the author's own work and represents their interpretation of the #
#song. You may only use this file for private study, scholarship, or research. #
#------------------------------------------------------------------------------##

Squarepusher - Abstract Lover

This is the lead guitar. Check out my youtube video to see how I play it.
http://www.youtube.com/watch?v=LOdt9TGPZY8&feature=relmfu

I would love to know what the chords are if you've managed to figure them out.
Floydian101@hotmail.com


  Q=70
  Gtr I
                    ~~      ~~~~   PM        ~
|---------------------|------------------|-------------|
|---------------------|------------------|-------------|
|-6-/8p6-\4-/3h4p3----|-4-4--------------|-------------|
|------------------h4-|-----6-4-6\-------|-4-----------|
|---------------------|------------6-6-7-|---6-4\-2----|
|---------------------|------------------|-------------|


                    ~~      ~~~~
|---------------------|------------------------------|
|---------------------|------------------------------|
|-6-/8p6-\4-\3h4p3----|-4-4----------------8-9-8\----|
|------------------h4-|-----6-4-6--9-9-8-9-----------|
|---------------------|------------------------------|
|---------------------|------------------------------|


                    ~~      ~~~~   PM        ~
|---------------------|------------------|-------------|
|---------------------|------------------|-------------|
|-6-/8p6-\4-/3h4p3----|-4-4--------------|-------------|
|------------------h4-|-----6-4-6\-------|-4-----------|
|---------------------|------------6-6-7-|---6-4\-2----|
|---------------------|------------------|-------------|


                    ~~      ~~~~
|---------------------|--------------------------------------|
|---------------------|--------------------------------------|
|-6-/8p6-\4-\3h4p3----|-4-4----------4-6-6S8-9-6S8-----------|
|------------------h4-|-----6-4-6--6---------------9S6-6S====|
|---------------------|--------------------------------------|
|---------------------|--------------------------------------|


  ~~~~~~~~~~~~~     ~~~~~~~    ~
|-----------------------------------|
|-----------------------------------|
|---------------11h12---11----------|
|-9----11---12--------------12S9----|
|-----------------------------------|
|-----------------------------------|


   ~~~~~~~~~~~
|-------------------------------------------------------------|
|----------12-------------------------------------------------|
|------9-------------9\-------------------11\----------11\----|
|-11-------------11-------9-10-9--9-(6)-9-------6-7--9--------|
|-------------------------------------------------------------|
|-------------------------------------------------------------|


                   ~             ~~~~~~~~
|---------------------------------------------|
|---------------------------------------------|
|-------11\--------------9-11-12--------------|
|-6-7-9--------6-7-9--12---------9-7-5-4-2----|
|---------------------------------------------|
|---------------------------------------------|
Tap to rate this tab
# A B C D E F G H I J K L M N O P Q R S T U V W X Y Z