Guitaretab - guitar tabs
Song name
# A B C D E F G H I J K L M N O P Q R S T U V W X Y Z

Squarepusher - Tommib Help Buss tab

-------------------------------------------------------------------------------
	  	Squarepusher - Tommib Help Buss
-------------------------------------------------------------------------------

Tabbed by:Equanimity(j)
Email:wayofajedi@yahoo.com

comments: I listen to Ultravisitor like every day. For therapeutic value.
Songs like this can help you through a couple of bad days..
The melody itself is angelic and serene, yet playful.  And, I'm
sure this isnt a perfect tab, so if you have suggestions feel free to send them.   
and please support the artist.

e|--5----0-----2-4-5-0------------0----------------0-----0------|
B|-----------------------3---2------------------3-----5---------|
G|--------------------------------------------------------------|
D|--------------------------------------------------------------|
A|--------------------------------------------------------------|
E|--------------------------------------------------------------|
[ Tab from: http://www.guitaretab.com/s/squarepusher/73392.html ]
e|--5----0-----2-4-5-0-----------------------------------5---0|
B|-----------------------3------2------0-----3-2-0-------2---2|
G|-------------------------------------------------2-----2---2|
D|------------------------------------------------------------|
A|------------------------------------------------------------|
E|------------------------------------------------------------|

{(beginning section over, begin looping these next two sections till end of song}}

e|---2-4-5-0-----------0-----------------0-----0--------5---0-|
B|-------------3---2------------------3-----5-----------2---2-|
G|------------------------------------------------------2---2-|
D|------------------------------------------------------------|
A|--------------------------------------------------0---------|
E|------------------------------------------------------------|

e|--2-4-5-0----------------------------------------------5---0|
B|-----------------------3------2------0-----3-2-0-------2---2|
G|-------------------------------------------------2-----2---2|
D|------------------------------------------------------------|
A|---------------------------------------------------0--------|
E|------------------------------------------------------------|

{[Ending of song}]
e|--2-4-5-0----------------------------------------------|
B|-----------------------3------2------0-----3-2-0-------|
G|-------------------------------------------------2-----|
D|-------------------------------------------------------|
A|-------------------------------------------------------|
E|-------------------------------------------------------|


======================================================================
Related for Tommib Help Buss tab