Song name
# A B C D E F G H I J K L M N O P Q R S T U V W X Y Z

Squarez - The Lonely Guy tab

Tab to \"The Lonely Guy\"

Guitar written by Tom Stevens
Lyrics written by Tom Stevens

INTRO

E||------------------------------------------------------||
B||------------------------------------------------------||
G||-----------------------------------------------7-7-777||
D||7-7-777--2-2-222----------------------4-4-444--7-7-777|| 
A||7-7-777--2-2-222----------------------4-4-444--5-5-555||
E||5-5-555--0-0-000----------------------2-2-222---------||
                       x2
VERSE 1

E||-----------------------------------------------------||
B||-----------------------------------------------------||
G||----------------------------------------------7-7-7-7||
D||7-7-7-7----2-2-2-2--------------------4-4-4-4-7-7-7-7||  
A||7-7-7-7----2-2-2-2--------------------4-4-4-4-5-5-5-5||
E||5-5-5-5----0-0-0-0--------------------2-2-2-2--------||
\"as he sits in the corner,               sitting all on his own\"

E||-----------------------------------------------------||
B||-----------------------------------------------------||
G||----------------------------------------------7-7-7-7||
D||7-7-7-7----2-2-2-2-------------------4-4-4-4--7-7-7-7||  
A||7-7-7-7----2-2-2-2-------------------4-4-4-4--5-5-5-5||
E||5-5-5-5----0-0-0-0-------------------2-2-2-2---------||
\"with nobody to love him,               nobody waiting at home\"

CHORUS

E||-----------------------------------------------------||
B||-----------------------------------------------------||
G||----------------------------------------------7-7-7-7||
D||7-7-7-7----2-2-2-2-------------------4-4-4-4--7-7-7-7||  
A||7-7-7-7----2-2-2-2-------------------4-4-4-4--5-5-5-5||
E||5-5-5-5----0-0-0-0-------------------2-2-2-2---------||
\"this is the story of the lonely guy,   who spends his life on his own\"

E||-----------------------------------------------------||
B||-----------------------------------------------------||
G||----------------------------------------------7-7-7-7||
D||7-7-7-7----2-2-2-2-------------------4-4-4-4--7-7-7-7||  
A||7-7-7-7----2-2-2-2-------------------4-4-4-4--5-5-5-5||
E||5-5-5-5----0-0-0-0-------------------2-2-2-2---------||
\"nobody wanting to know him,            nobody cares at all\"

VERSE 2

E||-----------------------------------------------------||
B||-----------------------------------------------------||
G||----------------------------------------------7-7-7-7||
D||7-7-7-7----2-2-2-2-------------------4-4-4-4--7-7-7-7||  
A||7-7-7-7----2-2-2-2-------------------4-4-4-4--5-5-5-5||
E||5-5-5-5----0-0-0-0-------------------2-2-2-2---------||
\"as he walks past the party,            he takes a quick look inside\"

E||-----------------------------------------------------||
B||-----------------------------------------------------||
G||----------------------------------------------7-7-7-7||
D||7-7-7-7----2-2-2-2-------------------4-4-4-4--7-7-7-7||  
A||7-7-7-7----2-2-2-2-------------------4-4-4-4--5-5-5-5||
E||5-5-5-5----0-0-0-0-------------------2-2-2-2---------||
\"he sees the happy people dancing,      then he walks off with a sigh\"

CHORUS

E||-----------------------------------------------------||
B||-----------------------------------------------------||
G||----------------------------------------------7-7-7-7||
D||7-7-7-7----2-2-2-2-------------------4-4-4-4--7-7-7-7||  
A||7-7-7-7----2-2-2-2-------------------4-4-4-4--5-5-5-5||
E||5-5-5-5----0-0-0-0-------------------2-2-2-2---------||
\"this is the story of the lonely guy,   who spends his life on his own\"

E||-----------------------------------------------------||
B||-----------------------------------------------------||
G||----------------------------------------------7-7-7-7||
D||7-7-7-7----2-2-2-2-------------------4-4-4-4--7-7-7-7||  
A||7-7-7-7----2-2-2-2-------------------4-4-4-4--5-5-5-5||
E||5-5-5-5----0-0-0-0-------------------2-2-2-2---------||
\"nobody wanting to know him,            nobody cares at all\"

VERSE 3

E||-----------------------------------------------------||
B||-----------------------------------------------------||
G||----------------------------------------------7-7-7-7||
D||7-7-7-7----2-2-2-2-------------------4-4-4-4--7-7-7-7||  
A||7-7-7-7----2-2-2-2-------------------4-4-4-4--5-5-5-5||
E||5-5-5-5----0-0-0-0-------------------2-2-2-2---------||
\"as he sits at the window,              watching the people walk by\"

E||-----------------------------------------------------||
B||-----------------------------------------------------||
G||----------------------------------------------7-7-7-7||
D||7-7-7-7----2-2-2-2-------------------4-4-4-4--7-7-7-7||  
A||7-7-7-7----2-2-2-2-------------------4-4-4-4--5-5-5-5||
E||5-5-5-5----0-0-0-0-------------------2-2-2-2---------||
\"nobody ever to seems to se him,        he lies at night and he cries\"

CHORUS

E||-----------------------------------------------------||
B||-----------------------------------------------------||
G||----------------------------------------------7-7-7-7||
D||7-7-7-7----2-2-2-2-------------------4-4-4-4--7-7-7-7||  
A||7-7-7-7----2-2-2-2-------------------4-4-4-4--5-5-5-5||
E||5-5-5-5----0-0-0-0-------------------2-2-2-2---------||
\"this is the story of the lonely guy,   who spends his life on his own\"

E||-----------------------------------------------------||
B||-----------------------------------------------------||
G||----------------------------------------------7-7-7-7||
D||7-7-7-7----2-2-2-2-------------------4-4-4-4--7-7-7-7||  
A||7-7-7-7----2-2-2-2-------------------4-4-4-4--5-5-5-5||
E||5-5-5-5----0-0-0-0-------------------2-2-2-2---------||
\"nobody wanting to know him,            nobody cares at all\"

Tap to rate this tab
 
# A B C D E F G H I J K L M N O P Q R S T U V W X Y Z