Song name
# A B C D E F G H I J K L M N O P Q R S T U V W X Y Z

Squeeze Theeze Pleeze - Sometimes A Little Sometimes tab

Highlighted       Show chord diagrams
Artist: Squeeze Theeze Pleeze
Song: Sometimes a Little Sometimes
Album: One Life Is Not Enough (2007)


      E  A  D  G  B  E

B     x  2  4  4  4  2
G#m   4  6  6  5  4  4
E     0  2  2  1  0  0
F#    2  4  4  3  2  2


Intro:
   B                                      G#m
e|-------------------------------------|-------------------------------------|
B|-------------------------------------|-------------------------------------|
G|----------6-----------------6--------|---------3----------------3----------|
D|-----9-------9----------9-----9------|----6------6---------6------6--------|
A|---9---9--------9-----9---9-----9----|--6---6------6-----6---6------6------|
E|-------------------------------------|-------------------------------------|
   B                                      G#m
e|-------------------------------------|-------------------------------------|
B|-------------------------------------|-------------------------------------|
G|----------6-----------------6--------|---------3----------------3----------|
D|-----9-------9----------9-----9------|----6------6---------6------6---6--4-|
A|---9---9--------9-----9---9-----9----|--6---6------6-----6---6------6------|
E|-------------------------------------|-------------------------------------|


Verse 1:
B
I knew that this would happen
       G#m
But I did it again, I did it again
B
I know I tried to save them
       G#m
But I did it again, I did it again


Pre-chorus:
E
Sometimes it's hard
	        F#
To remember my face
	                          E
Has it really been a waste to all?
	                                  B
Sometimes it's just a little too hard to find
                   F#
A lost piece of myself


Verse 2:
B
I knew that it would change you
       G#m
But I did it again, I did it again
B
I even used my silence
       G#m
But I did it again, I did it again


Pre-chorus:
E
Sometimes it's hard
                F#
To remember my words

Has it really been so fake at all?
E                                         B
Sometimes it's just a little too hard to find
                   F# (here strum always DOWN DOWN, DOWN UP)
A lost piece of myself


Chorus:
B
I'm sorry, I know life has ways of telling you
G#m
Sorry, I know you've learned how to get through
E
Sorry, I wish I could have a little sometime
F#
Sorry, it's vicious battle we must fight!

B	    G#m
I'm sorry, sorry
E      F#
Sorry, sorry

It's a vicious battle we must fight!


Verse 3: (normal strumming)
B
I know I had no reason
       G#m
But I did it again, I did it again
B
I said I wouldn't lie
       G#m
But I did it again, I did it again


Pre-chorus 3:
E
Sometimes it's hard
                F#
To remember my words

Has it really been so fake at all?
E                                         B
Sometimes it's just a little too hard to find
                   F# (chorus strumming)
A lost piece of myself


Chorus:
B
I'm sorry, I know life has ways of telling you
G#m
Sorry, I know you've learned how to get through
E
Sorry, I wish I could have a little sometime
F#
Sorry, it's vicious battle we must fight!

B	    G#m
I'm sorry, sorry
E      F#
Sorry, sorry

It's a vicious battle we must fight!


Verse 4: (played with intro riff)
B
I knew that this would happen
G#m
I knew that it would change you
B                              G#m
I knew that things would never be the same again!
Tap to rate this tab
# A B C D E F G H I J K L M N O P Q R S T U V W X Y Z