Song name
# A B C D E F G H I J K L M N O P Q R S T U V W X Y Z

Squeeze - Up The Junction tab

-------------------------------------------------------------------------------
			     Up the junction - Squeeze
-------------------------------------------------------------------------------
Tabbed by:AaronH.co.uk
Email: aaron@aaronh.co.uk

Tuning:normal

e|-----------0---2---0---4---2---4---2---0---------------0---2---0-----------|
B|---0---2-----------------------------------2---0---2---------------2---0---|
G|---------------------------------------------------------------------------|
D|---------------------------------------------------------------------------|
A|---------------------------------------------------------------------------|
E|---------------------------------------------------------------------------|

e|---------------------------------------------------------------------------|
B|---2---0-------------------------------------------------------------------|
G|-----------1---------------------------------------------------------------|
D|---------------4-----------------------------------------------------------|
A|---------------------------------------------------------------------------|
E|---------------------------------------------------------------------------|

After this refer to chords as posted by other members
Tap to rate this tab
# A B C D E F G H I J K L M N O P Q R S T U V W X Y Z