Song name
# A B C D E F G H I J K L M N O P Q R S T U V W X Y Z

Squirrel Nut Zippers - Plenty More tab

"Plenty More" By The Squirrel Nut Zippers


(Riff)

          Bb             C          F
e------------------------8---------------------------|
B---------8-10-8-10-8-10---10-8-10-------------------|
G----7-10--------------------------10-7--------------|
D-10------------------------------------10-----------|
A----------------------------------------------------|
E----------------------------------------------------|

          Bb             C         F         A7
e------------------------8---------8-8-8-------------|
B---------8-10-8-10-8-10---10-8-10-------------------|
G----7-10--------------------------------------------|
D-10-------------------------------------------------|
A----------------------------------------------------|
E----------------------------------------------------|

  Bb       A      Dm           Bb       A       G 
e-10----10-9----9-10---------------------------------|
B----10------10------10-10-----11----11-10---10------|
G---------------------------------10-------9----7----|
D----------------------------------------------------|
A----------------------------------------------------|
E----------------------------------------------------|

          Bb             C         F
e------------------------8---------------------------|
B---------8-10-8-10-8-10---10-8-10-------------------|
G----7-10--------------------------10-7--------------|
D-10------------------------------------10-----------|
A----------------------------------------------------|
E----------------------------------------------------|

Lyrics


(Verse)

              Bb
They may walk hand in hand
     C                  F
Like lovers through the market square
          Bb
Selecting leather goods
   C                 F                 A7
Pretending that they just don't care


(Chorus)

         Bb      A        Dm
They say all the boys are monsters,
Bb      A         G*
All the girls are whores....
            Bb
So when you lose the one you love
        C      F
There's always plenty more!


(Repeat Riff)


(Verse)

            Bb
They may be in a club
    C                  F
All dressed up waiting to meet you
           Bb
Or in some garret bleak
   C            F            A7
Despairing over what to do


(Chorus)

Bb      A         Dm
All the girls are monsters
Bb      A        G*
All the boys are whores....
            Bb
So when you lose the one you love
        C      F
There's always plenty more!


(Play First Two Lines Of Riff)


(Last Half Of Chorus Continues)

            Bb
So when you lose the one you love
        C      F
There's always plenty more!
            B
So when you lose the one you love
        C      F
There's always plenty more!
            Bb
So when you lose the one you love
              Dm    A7     Bb      Dm                
There's always      plenty more!
A7     Bb     (Dm    A7     Bb)- Outro Jam.
Plenty more!


* (Here, strum four beats and mute it on the fifth.)

                    Tab By -T.M.C

          Better than a thousand hollow words, is one word that brings peace. 
                                      Buddha
Tap to rate this tab
# A B C D E F G H I J K L M N O P Q R S T U V W X Y Z