Song name
# A B C D E F G H I J K L M N O P Q R S T U V W X Y Z

Squirtgun - Elane On The Brain tab

#----------------------------------PLEASE NOTE---------------------------------#
#This file is the author's own work and represents their interpretation of the #
#song. You may only use this file for private study, scholarship, or research. #
#------------------------------------------------------------------------------##
#

#----------------------------------PLEASE NOTE---------------------------------#
#This file is the author's own work and represents their interpretation of the #
#song. You may only use this file for private study, scholarship, or research. #
#------------------------------------------------------------------------------#

SquirtGun-"Elane On the Brain"
Album=Self Titled

intro=g#5 c#5 g#5 c#5 g#5 c#5 d#5 c#5

verse=g#5 a#5

bridge=d#5 c#5 g#5

chorus=(g#5 g5) f5 g#5 (g#5 g5) f5 g#5 (g#5 g5) f5 g#5 (g#5 g5) f5 a#5

solo:
e-------------------------------------------|
b-------------------------------------------|
g---8-8-6-5---8-8-6-5-----------------------|
d-----------5---------5-8-10-8---8-10-8-----|
a------------------------------8--------8---|
e-------------------------------------------|
	Play this 2x then play next solo

solo (part2):
e------------------------------------------------------|
b------------------------------------------------------|
g---8-8-8-10-8-8-8-10--6-6-6-5-6-6-6p5-6p5---5-6p5-----|
d------------------------------------------6-------6---|
a------------------------------------------------------|
e------------------------------------------------------|
Tap to rate this tab
 
# A B C D E F G H I J K L M N O P Q R S T U V W X Y Z