Song name
# A B C D E F G H I J K L M N O P Q R S T U V W X Y Z

Squirtgun - Headache All Day tab

#----------------------------------PLEASE NOTE---------------------------------#
#This file is the author's own work and represents their interpretation of the #
#song. You may only use this file for private study, scholarship, or research. #
#------------------------------------------------------------------------------##
#

#----------------------------------PLEASE NOTE---------------------------------#
#This file is the author's own work and represents their interpretation of the #
#song. You may only use this file for private study, scholarship, or research. #
#------------------------------------------------------------------------------#

Squirtgun-"Headache All Day"
Album-self titled

intro=d5 d5 c5 c5 g5 g5 f5 g5

ska:
e---5--3--3--1--3---|
b---6--4--3--1--3---|
g---7--5--4--2--4---|
d---7--5--5--3--5---|
a---5--3--5--3--5---|
e---------3--1--3---|

verse=d5 g5 c5 a5

chorus=g5 c5 a5 d5 (use harmonics with g5 and a5)

solo:
e-------------10-8--------10-8---|
b---10-8-10-8------8-10-8--------|
g--------------------------------|
d--------------------------------|
a--------------------------------|
e--------------------------------|
	Repeat
Tap to rate this tab
 
# A B C D E F G H I J K L M N O P Q R S T U V W X Y Z