Song name
# A B C D E F G H I J K L M N O P Q R S T U V W X Y Z

Sr-71 - She Was Dead tab

This is a reply to a request for the tab in drop D, however the song is actually played 
drop D tuned
a half step down. If you want to play it in drop D then just play everything listed here 
fret lower.
In this case note that 000xxx would become x466xx and x022xx would become 666xxx.

Tabbed by: Mike

x - muted note
pm - palm mute notes underlined by a period (.)


Intro:    guitar 1 - maybe played with some effects/harmonics
eb------------------------------------------------|
Bb------------------------------------------------|
Gb------------------------------------------------|
Db---7777----7777----7777-------------------------|  x4
Ab-------7777----7777----777799997777-------------|
Db------------------------------------------------|

 on last two times the above is played, guitar 2 holds this chord until the verse
eb-------|
Bb-------|
Gb-------|
Db---7---|
Ab---7---|
Db---7---|

VERSE:
eb-----------------------------------------------------------------|
Bb-----------------------------------------------------------------|   x2
Gb--2-22222222222222-4-44444444444444------------------7-6-4-7-6-4-|
Db--2-22222222222222-4-44444444444444-4-44444444444444-7-6-4-7-6-4-|
Ab--0-00000000000000-2-22222222222222-4-44444444444444-5-4-2-5-4-2-|
Db------------------------------------4-44444444444444-------------|
pm    ..............   ..............   ..............

CHORUS:
eb--------------------------------------------------------------------|
Bb--------------------------------------------------------------------|
Gb--2-2-2-2-------------------------2-2-2-2---------6-6-6-6-77-7-77-7-|
Db--2-2-2-2-2-2-2-2-4-4-4-4-0-0-0-0-2-2-2-2-2-2-2-2-6-6-6-6-77-7-77-7-|
Ab--0-0-0-0-2-2-2-2-4-4-4-4-0-0-0-0-0-0-0-0-2-2-2-2-4-4-4-4-55-5-55-5-|
Db----------2-2-2-2-4-4-4-4-0-0-0-0---------2-2-2-2-------------------|
pm    . . . . . . . . . . . . . . .   . . . . . . . . . . . ..   ..

*strum each chord as needed
eb-------------------------------|
Bb-------------------------------|
Gb--2----------------------------|
Db--2----2----4----0----3------5-|
Ab--0----2----4----0----3------5-|
Db-------2----4----0----3------5-|


play INTRO and VERSE again..

then the little pre-chorus thing before the second chorus
"Theres gotta be a way..."

 again strum each chord as u see fit

	guitar 1
eb-----------------|
Bb-----------------|
Gb--6-----7-----9--|
Db--6-----7-----9--|
Ab--4-----5-----7--|
Db-----------------|
	guitar 2
eb----------------------------------|
Bb----------------------------------|
Gb--6-----7-----9-11-13-14-16-14-13-|
Db--6-----7-----x--x--x--x--x--x--x-|
Ab--4-----5-----7--9-11-12-14-12-11-|
Db----------------------------------|


play CHORUS again..


BRIDGE:
eb------------------------------------------|
Bb------------------------------------------|
Gb----------------------7---7-6-7-4---6-4-2-|
Db--4---4-2-4-7---7-6-7-7---7-6-7-4---6-4-2-|
Ab--4---4-2-4-7---7-6-7-5---5-4-5-2---4-2-0-|
Db--4---4-2-4-7---7-6-7---------------------|

eb----------------------------------------------------------------|
Bb----------------------------------------------------------------|
Gb----------------------7---7-7-7-9-9-9-9-9-9-9-9-9-9-9-9-9-9-9-9-|
Db--4---4-2-4-7---7-6-7-7---7-7-7-9-9-9-9-9-9-9-9-9-9-9-9-9-9-9-9-|
Ab--4---4-2-4-7---7-6-7-5---5-5-5-7-7-7-7-7-7-7-7-7-7-7-7-7-7-7-7-|
Db--4---4-2-4-7---7-6-7-------------------------------------------|

  guitar 2 plays this at the end where the first guitar is strumming the last chord
eb---------------------------------------------|
Bb---------------------------------------------|
Gb-9-9-9-9-13-13-13-13-16-16-16-16-16-16-16-16-|
Db-x-x-x-x--x--x--x--x--x--x--x--x--x--x--x--x-|
Ab-7-7-7-7-11-11-11-11-14-14-14-14-14-14-14-14-|
Db---------------------------------------------|


play INTRO again..


FINAL CHORUS:
eb-----------------------------------------------|
Bb-----------------------------------------------|
Gb--2-------------------2---------6----77-7-77-7-|
Db--2----2----4----0----2----2----6----77-7-77-7-|
Ab--0----2----4----0----0----2----4----55-5-55-5-|
Db-------2----4----0---------2-------------------|
                                   pm  ..   ..

eb-------------------------------|
Bb-------------------------------|
Gb--2----------------------------|
Db--2----2----4----0----3------5-|
Ab--0----2----4----0----3------5-|
Db-------2----4----0----3------5-|

eb-----------------------------------------------|
Bb-----------------------------------------------|
Gb--2-------------------2---------6----77-7-77-7-|
Db--2----2----4----0----2----2----6----77-7-77-7-|
Ab--0----2----4----0----0----2----4----55-5-55-5-|
Db-------2----4----0---------2-------------------|
                                   pm  ..   ..

                                         |End with:
eb---------------------------------------|-----|
Bb---------------------------------------|-----|
Gb--2-2-2-2------------------------------|-----|
Db--2-2-2-2-2-2-2-2-4-4-4-4-0-0-0-0--3--5|--55-|
Ab--0-0-0-0-2-2-2-2-4-4-4-4-0-0-0-0--3--5|--55-|
Db----------2-2-2-2-4-4-4-4-0-0-0-0--3--5|--55-|
pm    . . . . . . . . . . . . . . .
Tap to rate this tab
# A B C D E F G H I J K L M N O P Q R S T U V W X Y Z