Song name
# A B C D E F G H I J K L M N O P Q R S T U V W X Y Z

Sr-71 - Fame tab

Tabbed by: Mike

~(let ring)
h(hammer on)
x(muted note)


sung before guitar comes in: "Fame's what she's wanting,  
                              not a face in the crowd
                              just a disposable popstar

Intro: (played once before verse starts)
                                      
e--------------------------------|
B--------------------------------|
G---8-8----7-7----8-8------------|
D---8-8----8-8----8-8----6-6-----|
A---6-6----5-5----6-6----6-6-----|
E------------------------4-4-----|


Verse:
      "Starring down......"    
e------------------------------------------------------------------|
B------------------------------------------------------------------|(play 
G---8-8----7-7----8-8-----------8-8----7-7----5-5------------------| this
D---8-8----8-8----8-8----6-6----8-8----8-8----5-5----6-6-----------| 2x)
A---6-6----5-5----6-6----6-6----6-6----5-5----3-3----6-6-----------|
E------------------------4-4-------------------------4-4-----------|


Chorus:   (play following twice)
    "fames what she's wanting....."
e------------------------------------------------------------------|
B------------------------------------------------------------------|
G---8-(8x)-10-(8x)-------------------------------------------------|
D---8------10------6-(8x)-8-(8x)-----------------------------------|
A---6-------8------6------8----------------------------------------|
E------------------4------6----------------------------------------|


After chorus play the intro once to lead into the second verse.
(the second verse is exactly the same as the first)

then for the pre-chorus:

e------------------------------------|
B------------------------------------|
G------------------------------------|
D--6-(8x)-8-(8x)---------------------|
A--6------8--------------------------|
E--4------6--------------------------|


Play the Chorus


Interlude: (guitar 1-lead)

e---------------------------------------------------------------------------
B---------------------------------------------------------------------------
G-----------------------(play 3x)---for the fourth time:--------------------
D--6---5---6---6h8-6h8---------------------------------6---5---8~--10--11~  
A---------------------------------------------------------------------------
E---------------------------------------------------------------------------
                                        |
Interlude: (guitar 2-rhythm)            played at same time
                                        |
e--play 3x:--------------------on fourth time:------------------------------
B---------------------------------------------------------------------------
G---8-(4x)-7-(4x)-8-(4x)-10-(4x)-------------8-(4x)-7-(4x)-10-(8x)-13-(8x)--
D---8------8------8------10------------------8------8------10------13-------
A---6------5------6-------8------------------6------5-------8------11-------
E---------------------------------------------------------------------------

 Play this before the last chorus.
e-----------------------------------------------------|
B-----------------------------------------------------|
G---x-x-8-8-x-x-7-7-x-x-8-8-x-x-----------------------|
D---x-x-8-8-x-x-8-8-x-x-8-8-x-x-6-6-------------------|
A---x-x-6-6-x-x-5-5-x-x-6-6-x-x-6-6-------------------|
E---x-x-----x-x-----x-x-----x-x-4-4-------------------|

Play the chorus again for the last time then:

Outro:

e-------------------------------------------------------- End on:-----
B--------------------------------------------------------        -----
G--8-8----7-7----8-8-----------8-8----7-7----5-5---------        -8-8-
D--8-8----8-8----8-8----6-6----8-8----8-8----5-5----6-6--        -8-8-  
A--6-6----5-5----6-6----6-6----6-6----5-5----3-3----6-6--        -6-6- 
E-----------------------4-4-------------------------4-4--        -----




Lyrics:

Intro:

Fame's what she's wanting 
not a face in the crowd
just a disposable popstar


Verse1:

Starring down from thirty thousand feet above the planet
she gets the sense nothings behind her anymore.
Her quest for fame has left her nothing short of a fanatic
for the chance to be the one that we adore.


Chorus:

Fame's what shes wanting
you cant go too far 
cause thats who we are.
Fame's what she's wanting
not a face in the crowd 
just a disposable popstar.


Verse2:

They called her princess cause they always knew she'd be a servant
never having an ambition in her life.
They all knew she'd end up just another loser's girlfriend
who'd have thought that she'd become a jeti  knight.


reapeat chorus

For the bridge just sing 
"popstar" over 4x

Sing the chorus one last time.



Well thats it. hope this tab is right and have fun.
Tap to rate this tab
# A B C D E F G H I J K L M N O P Q R S T U V W X Y Z