Guitaretab - guitar tabs
Song name
# A B C D E F G H I J K L M N O P Q R S T U V W X Y Z
Home / S / Sr-71 / 1985 tab

Sr-71 - 1985 tab

-------------------------------------------------------------------------------
			     1985- SR-71
-------------------------------------------------------------------------------
Tabbed by: kerri butcher
Email: Footie4eva@hotmail.com

Tuning:standard

* = play 8 times 
^ = bend string

Guitar 1
e|---------------------------------------------------------------------------|
B|---------------------------------------------------------------------------| repeat 
G|----------------8----------8-----------------------------------------------| the set
D|-66-66-66-66--8-8-5-3----8-8-5-3-------------------------------------------| of 8 
A|-66-66-66-66--8-6-5-3----8-6-5-3-------------------------------------------| notes
E|-44-44-44-44--6-*-3-1----6-*-3-1-------------------------------------------|
                *   * *    *   * *
Guitar 2
e|-------------------6-8-8-6--6-8-8-6----------------------------------------|
B|-6-8-8-6--6-8-8-6--------------------6-8-8-6-6-8-8--6----------------------|
G|------------------------------------------------------5-7-7-8-8-7-7-5------|
D|---------------------------------------------------------------------------|
A|---------------------------------------------------------------------------|
E|---------------------------------------------------------------------------|
[ Tab from: http://www.guitaretab.com/s/sr-71/132374.html ]
VERSE ONE- SAME CHORDS AS USED IN INTRO, PLAYED IN TWOS
 
CHORUS
GUITAR 1
e|---------------------------------------------------------------------------|
B|---------------------------------------------------------------------------|
G|---8---------8-------------------------------------------------------------|
D|-8-8-5-6---8-8-5-----66-66-66-66-------------------------------------------|
A|-8-6-5-6---8-6-5-----66-66-66-66-------------------------------------------|
E|-6-*-3-4---6-*-3-----44-44-44-44-------------------------------------------|
   *  *  *   *   *       
GUITAR 2
e|-----11>--------------11>--------------------------------------------------|
B|-11>-----8>-9>----11>------8>-9>-------------------------------------------|
G|---------------------------------------------------------------------------|
D|---------------------------------------------------------------------------|
A|---------------------------------------------------------------------------|
E|---------------------------------------------------------------------------|
REPEAT INTRO

REPEAT PATTERN FOR VERSE

REPEAT CHORUS

SOLO PLAYED OVER CHORD PATTERN

e|---------------------------------------------------------------------------|
B|---------------------------------------------------------------------------|
G|-12-10-12---12-10-7----12-10-12---12-12-10-10-7-----12-10-12---12-10-7-----|
D|-12-10-12---12-10-7----12-10-12---12-12-10-10-7-----12-10-12---12-10-7-----|
A|---------------------------------------------------------------------------|
E|---------------------------------------------------------------------------|

e|--------------------------^------------------------------------------------|
B|-------------11----11-13--13---11-11>--------------------------------------|
G|--12-10-12------12---------------------------------------------------------|
D|--12-10-12-----------------------------------------------------------------|
A|---------------------------------------------------------------------------|
E|---------------------------------------------------------------------------|


USE THE BASIC CHORD PATTERN FOR THE REST

BRIDGE PART 2, 
CHORUS X2

Well done you did it, go check out Bowling For Soup's version of this song because
its better than this one :D
Related for 1985 tab
×
1985