Song name
# A B C D E F G H I J K L M N O P Q R S T U V W X Y Z

Sr-71 - Gone tab

Tabbed By: Mike

x = muted noted
h = hammer on
/ = slide up
 = slide down

HALF A STEP DOWN

Intro:
	guitar 1
eb------------------------------------------------|
Bb------------------------------------------------|
Gb------------------------------------------------|
Db------------------------------------------------|
Ab-11-11-111111-9-99-9999--11-11-111111-9-99-9999-|
Eb--0--0--0-0-0-0-00-0000---0--0--0-0-0-0-00-0000-|
                                                     - x2
eb------------------------------------------------|  /
Bb------------------------------------------------| /
Gb------------------------------------------------|
Db-11-11-111111-6-66-6666-11-11-111111-6-66-6666--|
Ab--0--0--0-0-0-0-00-0000--0--0--0-0-0-0-00-0000--|
Eb------------------------------------------------|

	guitar 2 - starts after guitar 1 plays above once
eb---------------------------------|
Bb---------------------------------|
Gb-99999999999999999999999999999999
Db-xxxxxxxxxxxxxxxxxxxxxxxxxxxxxxxx   - just incase u cant count
Ab-77777777777777777777777777777777     thats 32x each
Eb------------------------------------------------------------------|
eb------------------------------------------------------------------|
Bb------------------------------------------------------------------|
Gb-1414141414141414141414141414141414141414141414141414141414141414
Db--x-x-x-x-x-x-x-x-x-x-x-x-x-x-x-x-x-x-x-x-x-x-x-x-x-x-x-x-x-x-x-x
Ab-1212121212121212121212121212121212121212121212121212121212121212
Eb-----------------------------------------------------------------

  Verse - guitar 1 - just the intro again

eb------------------------------------------------|
Bb------------------------------------------------|
Gb------------------------------------------------|
Db------------------------------------------------|
Ab-11-11-111111-9-99-9999--11-11-111111-9-99-9999-|
Eb--0--0--0-0-0-0-00-0000---0--0--0-0-0-0-00-0000-|
                                                     - x2
eb------------------------------------------------|  /
Bb------------------------------------------------| /
Gb------------------------------------------------|
Db-11-11-111111-6-66-6666-11-11-111111-6-66-6666--|
Ab--0--0--0-0-0-0-00-0000--0--0--0-0-0-0-00-0000--|
Eb------------------------------------------------|

	guitar 2 - again starts after guitar 1 plays above once

eb-----------------------------------------------------------------|
Bb-----------------------------------------------------------------|
Gb-99999999999999999999999999999999--------------------------------|
Db-xxxxxxxxxxxxxxxxxxxxxxxxxxxxxxxx77777777777777777777777777777777
Ab-77777777777777777777777777777777xxxxxxxxxxxxxxxxxxxxxxxxxxxxxxxx
Eb---------------------------------55555555555555555555555555555555


Chorus -    guitar 1
    * strum each chord as much as needed - i dont wanna count out
                                           the strumming pattern.
eb------------------------|
Bb------------------------|
Gb-------------------6--4-|
Db--2----7-----2-----6--4-| x3
Ab--2----7-----2-----4--2-|
Eb--0----5-----0----------|
	then
eb-------------------|
Bb-------------------|
Gb-------------------|
Db--4-4-4-4-4-4-46-7-|
Ab--4-4-4-4-4-4-46-7-|
Eb--2-2-2-2-2-2-24-5-|

	guitar 2
eb---------------------------------|
Bb---------------------------------|
Gb--999999999999999999999999-13-11-|
Db--xxxxxxxxxxxxxxxxxxxxxxxx--x--x-| x3
Ab--777777777777777777777777-11--9-|
Eb---------------------------------|
	then
eb--------------------------|
Bb--------------------------|
Gb-11-11-11-11-11-11-1113-9-|
Db-11-11-11-11-11-11-1113-9-|
Ab--9--9--9--9--9--9--911-7-|
Eb--------------------------|

  before 2nd verse
	guitar 1
eb------------------------------------------------|
Bb------------------------------------------------|
Gb------------------------------------------------|
Db------------------------------------------------|
Ab-11-11-111111-9-99-9999--11-11-111111-9-99-9999-|
Eb--0--0--0-0-0-0-00-0000---0--0--0-0-0-0-00-0000-|

eb------------------------------------------------|
Bb------------------------------------------------|
Gb------------------------------------------------|
Db-11-11-111111-6-66-6666-11-11-111111-6-66-6666--|
Ab--0--0--0-0-0-0-00-0000--0--0--0-0-0-0-00-0000--|
Eb------------------------------------------------|

	guitar 2 - plays this during the second part of the above
eb-----------------------------------|
Bb-----------------------------------|
Gb-----------------------------------|
Db--77777777777777777777777777777777-|
Ab--xxxxxxxxxxxxxxxxxxxxxxxxxxxxxxxx-
Eb--55555555555555555555555555555555-

Verse 2 - guitar one plays the same thing as in 1st verse
          except only once and guitar 2 doesnt play anything.

Then play the 2nd chorus which is exactly the same as
 the first chorus except for the ending part which
 changes a little.
	guitar 1 goes
eb----------------------------------|
Bb----------------------------------|
Gb----------------------------------|
Db--4-4-4-4-4-4-4-4-7-7-7-7-7-7-7-7-|
Ab--4-4-4-4-4-4-4-4-7-7-7-7-7-7-7-7-|
Eb--2-2-2-2-2-2-2-2-5-5-5-5-5-5-5-5-|

	guitar 2
eb-----------------------------------------|
Bb-----------------------------------------|
Gb-11-11-11-11-11-11-11-11-9-9-9-9-9-9-9-9-|
Db--x--x--x--x--x--x--x--x-x-x-x-x-x-x-x-x-|
Ab--9--9--9--9--9--9--9--9-7-7-7-7-7-7-7-7-|
Eb-----------------------------------------|


Bridge:
	guitar 1 - strum each as needed
 (I'm not 100% sure that this is how the chords are played)
    C#m   E     A     F#
eb--4-----7-----0-----4----4-----7-----0--|
Bb--5-----7----10-----7----5-----7----10--|
Gb--6-----9-----9-----6----6-----9-----9--|
Db--6-----9-----7-----4----6-----9-----7--|
Ab--4-----7-----0-----4----4-----7-----0--|
Eb--------0----------------------0--------|

eb-------------------------------------------------|
Bb-------------------------------------------------|
Gb--4-44--44--44--44--4--44-44--44--44--44--4--4---|
Db--4-44--44--44--44--4--44-44--44--44--44--4--4-2-|
Ab--0h220h220h220h220h20h20h220h220h220h220h20h2-2-|
Eb-----------------------------------------------0-|

	guitar 2 - while guitar 1 is playing above

eb-------------------------------------------------|
Bb-------------------------------------------------|
Gb-131313131313131313131313131313139999999999999999
Db--x-x-x-x-x-x-x-x-x-x-x-x-x-x-x-xxxxxxxxxxxxxxxxx
Ab-111111111111111111111111111111117777777777777777
Eb-------------------------------------------------

eb-----------------------------------------------------------------|
Bb-----------------------------------------------------------------|
Gb-1414141414141414141414141414141411111111111111111111111111111111
Db--x-x-x-x-x-x-x-x-x-x-x-x-x-x-x-x-x-x-x-x-x-x-x-x-x-x-x-x-x-x-x-x-|
Ab-12121212121212121212121212121212-9-9-9-9-9-9-9-9-9-9-9-9-9-9-9-9-|
Eb------------------------------------------------------------------|

eb-------------------------------------------------|
Bb-------------------------------------------------|
Gb-131313131313131313131313131313139999999999999999
Db--x-x-x-x-x-x-x-x-x-x-x-x-x-x-x-xxxxxxxxxxxxxxxxx
Ab-111111111111111111111111111111117777777777777777
Eb-------------------------------------------------

eb---------------------------------|
Bb---------------------------------|
Gb-14141414141414141414141414141414
Db--x-x-x-x-x-x-x-x-x-x-x-x-x-x-x-x
Ab-12121212121212121212121212121212
Eb---------------------------------

eb---------------------------------------
Bb-10/111110/111110/111110/111110/1110/11
Gb--x--x-x-x--x-x-x--x-x-x--x-x-x--x-x--x----|   x2
Db--7/-9-9-7/-9-9-7/-9-9-7/-9-9-7/-9-7/-9----|
Ab-------------------------------------------|
Eb-------------------------------------------|

then guitar 1 plays this again

eb------------------------------------------------|
Bb------------------------------------------------|
Gb------------------------------------------------|
Db------------------------------------------------|
Ab-11-11-111111-9-99-9999--11-11-111111-9-99-9999-|
Eb--0--0--0-0-0-0-00-0000---0--0--0-0-0-0-00-0000-|

eb---------------------------------------|
Bb---------------------------------------|
Gb---------------------------------------|
Db-11-11-111111-6-66-6666-11-11-111111-6-|
Ab--0--0--0-0-0-0-00-0000--0--0--0-0-0-0-|
Eb---------------------------------------|

then the chorus is played 1 more time

The ending for guitar 1 is:
eb------------------------------------------------------------------|
Bb------------------------------------------------------------------|
Gb------------------------------------------------------------------|
Db--4-4-4-4-4-4-4-4-7-7-7-7-7-7-7-7-4-4-4-4-4-4-4-4-7-7-7-7-7-7-7-7-|
Ab--4-4-4-4-4-4-4-4-7-7-7-7-7-7-7-7-4-4-4-4-4-4-4-4-7-7-7-7-7-7-7-7-|
Eb--2-2-2-2-2-2-2-2-5-5-5-5-5-5-5-5-2-2-2-2-2-2-2-2-5-5-5-5-5-5-5-5-|
    Ends on
    eb--4--
    Bb--5--
    Gb--6--
    Db--6--
    Ab--4--
    Eb-----

Ending for guitar 2

eb-----------------------------------------|
Bb-----------------------------------------|
Gb-11-11-11-11-11-11-11-11-9-9-9-9-9-9-9-9-|
Db--x--x--x--x--x--x--x--x-x-x-x-x-x-x-x-x-|
Ab--9--9--9--9--9--9--9--9-7-7-7-7-7-7-7-7-|
Eb-----------------------------------------|

eb-----------------------------------------------------|
Bb-----------------------------------------------------|
Gb-11-11-11-11-11-11-11-11-14-14-14-14-14-14-1311/13~--|
Db--x--x--x--x--x--x--x--x--x--x--x--x--x--x--x--x--x--|
Ab--9--9--9--9--9--9--9--9-12-12-12-12-12-12-11-9/11~--|
Eb-----------------------------------------------------|


Hope u got that without getting confused
Tap to rate this tab
 
# A B C D E F G H I J K L M N O P Q R S T U V W X Y Z