Song name
# A B C D E F G H I J K L M N O P Q R S T U V W X Y Z

Sr-71 - Alive tab

Help us improve GuitareTab! Take a short survey!
Highlighted       Show chord diagrams
Okay, im drunk and im sick of not knowing how to play this song so i figured it out
I dont know why but i think this song is great and is a cool acoustic and nice sounding
here it goes, simplified and lazied to the max and me just given the chords and pretty 
no details. Basically for playin with just the acoustic guitar, you can figure it out
its pretty easy

Tune down 1/2 step i beleive

Chords for Intro:
    dont really know the chord names so here what ill call em

    F#m      Asus     Eadd     E

E--0---------0---------0-------0-------------------------------------------|
B--0---------0---------0-------0-------------------------------------------|
G--2---------2---------2-------1-------------------------------------------|
D--4---------2---------2-------2-------------------------------------------|
A--4---------0---------2-------2-------------------------------------------|
E--2---------------------------0-------------------------------------------|

Bridge thing
   D
E---2---3----2----0----2-----------0--------2-----------3---------0---------------|
B---3---3----3----3----3-----------0--------3-----------3---------0---------------|
G---2---2----2----2----2-----------2--------4-----------0---------1---------------|
D---0---0----0----0----0-----------2--------4-----------0---------2---------------|
A----------------------------------0-----0--2-----------x---------2---------------|
E--------------------------------------2----------------3---------0---------------|

Back to intro one time then:


Chorus
E--0-------0-------0------------------------------------------------------|
B--0-------0-------0------------------------------------------------------|
G--6-------4-------2------------------------------------------------------|
D--6-------4-------2------------------------------------------------------|
A--4-------2-------0------------------------------------------------------|
E-------------------------------------------------------------------------|

E--0---------0----------0-----------------------------------------------------|
B--0--7-5----0---7---5--0-----------------------------------------------------|
G--6------6--4-----6----2-----------------------------------------------------|
D--6---------4----------2-----------------------------------------------------|
A--4---------2----------0-----------------------------------------------------|
E-----------------------------------------------------------------------------|

Ending part at about 3:24

E--0---------0--------0--------------------------------------------------------|
B--0---------0--------0--------------------------------------------------------|
G--3---------6--------1--------------------------------------------------------|
D--4---------7--------2--------------------------------------------------------|
A--4---------7--------2--------------------------------------------------------|
E--2---------5--------0--------------------------------------------------------|


End on the Asus
Related for Alive tab