Song name
# A B C D E F G H I J K L M N O P Q R S T U V W X Y Z

Sr-71 - Goodbye tab

Sr-71 - Goodbye

e|------------------|------------------|----------------------|
B|------------------|------------------|----------------------|
G|------------------|------------------|----------------------|
D|-----10---11---10-|-----10---11---10-|-------10----11----10-|
A|8--8----8----8----|------------------|11--11----11----11----|
D|------------------|9--9----9----9----|----------------------|

e|---------------------|
B|---------------------|
G|---------------------| Repeat them
D|-------10----11---10-|      2x
A|---------------------|
D|11--11----11----11---|


e|---------------------------------------|
B|---------------------------------------|
G|---------2-------5-------2-------5-----|
D|33--33---2---3---5---5---2---3---5---5-|
A|33--33---0---3---3---5---0---3---3---5-|
D|11--11-------1-------3-------1-------3-|


e|----------------------------------------|
B|----------------------------------------|
G|----------------------------------------|  Repeat
D|11--11--11-11-11-10--10-10--10-10-10-10-|    8x
A|----------------------------------------|
D|----------------------------------------|


e|-------------------------------------|----------------------------------|
B|-------------------------------------|----------------------------------|
G|2-------5-------2-------5------------|----------------------------------|
D|2---3---5---5---2---3---5---5-55-5-5-|77777---355555---5-77777---355555-|
A|0---3---3---5---0---3---3---5-55-5-5-|77777---355555---5-77777---355555-|
D|----1-------3-------1-------3-33-3-3-|55555---133333---3-55555---133333-|

e|--------------|
B|--------------|
G|--------------|
D|-5-7--7777777-|
A|-5-7--7777777-|
D|-3-5--5555555-|
        ******


e|------------------|------------------|----------------------|
B|------------------|------------------|----------------------|
G|------------------|------------------|----------------------|
D|-----10---11---10-|-----10---11---10-|-------10----11----10-|
A|8--8----8----8----|------------------|11--11----11----11----|
D|------------------|9--9----9----9----|----------------------|

e|---------------------|
B|---------------------|
G|---------------------| Repeat them
D|-------10----11---10-|      2x
A|---------------------|
D|11--11----11----11---|

e|----------------------------------------|
B|----------------------------------------|
G|----------------------------------------|  Repeat
D|11--11--11-11-11-10--10-10--10-10-10-10-|    8x
A|----------------------------------------|
D|----------------------------------------|

e|-------------------------------------|----------------------------------|
B|-------------------------------------|----------------------------------|
G|2-------5-------2-------5------------|----------------------------------|
D|2---3---5---5---2---3---5---5-55-5-5-|77777---355555---5-77777---355555-|
A|0---3---3---5---0---3---3---5-55-5-5-|77777---355555---5-77777---355555-|
D|----1-------3-------1-------3-33-3-3-|55555---133333---3-55555---133333-|

e|----------------------------------------------------------------------------|
B|----------------------------------------------------------------------------|
G|-------------------5------------------------------------5-7--77777777777777-|
D|-5-7--777--777--77-5-5--555--555--55--5-7--777--777--77-5-7--77777777777777-|
A|-5-7--777--777--77-3-5--555--555--55--5-7--777--777--77-3-5--55555555555555-|
D|-3-5--555--555--55---3--333--333--33--3-5--555--555--55---------------------|
                                                               **************

e|-----------------|
B|-----------------|
G|------------5----|  Repeat
D|5/7-777-5-7-5--5-|    4x
A|5/7-777-5-7-3--5-|
D|3/5-555-3-5----3-|

e|-----------------------------6---|
B|-6---9---6---9---6---9---6-------|
G|---8---8---8---8---8---8---8---8-|  Repeat
D|---------------------------------|    3x
A|---------------------------------|
D|---------------------------------|


e|------------------|------------------|----------------------|
B|------------------|------------------|----------------------|
G|------------------|------------------|----------------------|
D|-----10---11---10-|-----10---11---10-|-------10----11----10-|
A|8--8----8----8----|------------------|11--11----11----11----|
D|------------------|9--9----9----9----|----------------------|

e|---------------------|
B|---------------------|
G|---------------------| Only once, the next part is
D|-------10----11---10-|       abit different.
A|---------------------|
D|11--11----11----11---|


e|------------------|------------------|------------------|
B|------------------|------------------|------------------|
G|------------------|------------------|------------------|
D|-----10---11---10-|-----10---11---10-|-----10---11---10-|
A|8--8----8----8----|8--8----8----8----|------------------|
D|------------------|------------------|9--9----9----9----|

e|---------------------|
B|---------------------|
G|---------------------| Repeat them
D|-------10----11---10-|      4x
A|---------------------|
D|11--11----11----11---|



e|------------------|------------------|----------------------|
B|------------------|------------------|----------------------|
G|------------------|------------------|----------------------|
D|-----10---11---10-|-----10---11---10-|-------10----11----10-|
A|8--8----8----8----|------------------|11--11----11----11----|
D|------------------|9--9----9----9----|----------------------|

e|---------------------|
B|---------------------|
G|---------------------| Normal again,
D|-------10----11---10-|      4x
A|---------------------|
D|11--11----11----11---|


e|--------------------|
B|--------------------|
G|------------55------|
D|5/7-777-5-7-55-55-7-|
A|5/7-777-5-7-33-55-7-|
D|3/5-555-3-5----33-5-|

If you want to print it out, choose font "Courier New" size 9 :)
Sliplappy@hotmail.com is my mail ;)
Tap to rate this tab
# A B C D E F G H I J K L M N O P Q R S T U V W X Y Z