Sr-71 - Right Now tab

Tabbed by: Madfer39
05/09/2010

Chords used:

F5 (x688xx)
C5(x355xx)
C5-b (688xxx)
G# (466xxx)



Intro (Main Riff)
      
E||-----------------------------------|------------------------------------|
B||-----------------------------------|------------------------------------|
G||--8--------------------------------|------------------------------------|
D||--8--------------------------------|--10--------------------------------|
A||--6--6--6--6--6--6--6--10---8---6--|--10--------------------6---8---10--|
E||-----------------------------------|---8--8--8--8--8--8--8--------------|


    
-----------------------------------|---------------------------|
-----------------------------------|---------------------------|
-----------------------------------|---------------------------|
--8--------------------------------|---------------------------|
--8--------------------10---8---6--|--11---10---8--10---8---6--|
--6--6--6--6--6--6--6--------------|---------------------------|


-----------------------------------|------------------------------------|
-----------------------------------|------------------------------------|
--8--------------------------------|------------------------------------|
--8--------------------------------|--10--------------------------------|
--6--6--6--6--6--6--6--10---8---6--|--10--------------------6---8---10--|
-----------------------------------|---8--8--8--8--8--8--8--------------|


  
-----------------------------------|---------------------------|
-----------------------------------|---------------------------|
-----------------------------------|---------------------------|
--8--------------------------------|---------------------------|
--8--------------------10---8---6--|--11---10---8--10---8---6--|
--6--6--6--6--6--6--6--------------|---------------------------|





Verse.

This is the picking used in the 1st and 2nd Verse.
E||-----------------------------------|------------------------------------|
B||-----------------------------------|------------------------------------|
G||--8--------------------------------|--5---------------------------------|
D||--8--------------------------------|--5---------------------------------|
A||--6--6--6--6--6--6--6--6--6--6--6--|--3--3--3--3--3--3--3--3--3--3--3---|
E||-----------------------------------|------------------------------------|

E||-----------------------------------|------------------------------------|
B||-----------------------------------|------------------------------------|
G||-----------------------------------|------------------------------------|
D||--8--------------------------------|--6---------------------------------|
A||--8--------------------------------|--6---------------------------------|
E||--6--6--6--6--6--6--6--6--6--6-----|--4--4--4--4--4--4--4--4--4--4--4---|


she clings to me like cellophane

fake plastic submarine

slowly driving me insane

but now thatís over


so what if the sex is great
just temporary escape
another thing I grew to hate 
but now thatís over


Chorus: F5 - C5b - C5 - G# x2

why why do you always kick me when im high?
knock me down till we see eye to eye
figured her out I know she may not be
miss right she'll do right now (she'll do right now)


MAIN RIFF

 
Verse: again the picking from the 1sr verse.

I used to hang on every word
each lie was more absurd 
kept me so insecure but now thatís over
she taught me how to trust

and to believe in us
then she taught me how to cuss
that bitch its over
(you know I used to be such a nice boy)



Chorus: F5 - C5b - C5 - G# x2

why why do you always kick me when im high?
knock me down till we see eye to eye
figured her out I know she may not be
miss right she'll do right now 


Solo: (Rhythm guitar keeps playing verse chords)

-4-0-0-5-0-0-7-0-0-9-0-0-12b14r12---------------------------------------------|
----------------------------------12b14r12------------------------------------|
-------------------------------------------12b14r12-9b11r9--------------------|
-----------------------------------------------------------9b10r9-9/11\9/11\9-|
------------------------------------------------------------------------------|
------------------------------------------------------------------------------|

-------------------------------------------------12---------------------------|
-----------------------------9---9h10p9-12-------12---------------------------|
-----------9------------9/11--------------/13-14----/13-14--------------------|
------9/11---------9/11-------------------------------------------------------|
-9/11---------9/11------------------------------------------------------------|
------------------------------------------------------------------------------|
                                                     very fast hammer
on part
-1212121212121212121212121212121212h14p12h16-12-14-1212-12h14p12h16-12-14-12--|
-1212121212121212121212121212121212-12-12-12-12-12-1212-12-12-12-12-12-12-12--|
------------------------------------------------------------------------------|
------------------------------------------------------------------------------|
------------------------------------------------------------------------------|
------------------------------------------------------------------------------|
                                                   very fast pull off
part
-16b17r16-14---12b14-------14b16r14-12---10b12----14/16\14----12p11p9---------|
---------------------------------------------------------------------12-------|
------------------------------------------------------------------------------|
------------------------------------------------------------------------------|
------------------------------------------------------------------------------|
------------------------------------------------------------------------------|


she clings to me like cellophane
fake plastic submarine
she's driving me insane
but now thats over (now that's over)



why why do you always kick me when im high?
knock me down till we see eye to eye
figured her out I know she may not be
miss right she'll do right now (she'll do right now)

right now ohh
right now
Tap to rate this tab
 
# A B C D E F G H I J K L M N O P Q R S T U V W X Y Z