Sr-71 - My World tab

My World Guitar TABS                               BY: Kennedy G.
Standard Tuning
Backround~
E|--------------------------------|
B|--------------------------------|
G|0-1--3-5--7-8--8-10-8-10--------| Backround
D|--------------------------------|
A|--------------------------------|
E|--------------------------------|
---
E|--------------------------------------------------------------|
B|-----7-8---78-8------7-8--78-8--7-8---78-8------7-8--7-8s10-8-|
G|---6--------------5------------6--------------5---------------| Beginning
D|--------------------------------------------------------------|
A|--------------------------------------------------------------|
E|--------------------------------------------------------------|
The fastest man in the world, fast asleep at the wheel... Nobody wants to be alone..
So how did I get.. here?
Backround~
E|------------------------------------------------------------------|
B|--99999/8-6-4~----------------------------------------------------|
G|------------------------------------------------------------------|
D|------------------------------------------------------------------|
A|------------------------------------------------------------------|
E|------------------------------------------------------------------|
---
E|--------------------------------|
B|--------------------------------|
G|0-1--3-5--7-8-8-10-8-10---------| after "how did I get.. here?"
D|--------------------------------| 
A|--------------------------------|
E|--------------------------------|
When I look at you, 
E|----------------|--------------------|
B|----------------|--------------------|
G|---0-7-8-10-7-8~|----0-7-8-10/12-8---|
D|----------------|--------------------|
A|----------------|--------------------|
E|----------------|--------------------|
I see him staring through..

Awake and a smile, cuz he's been inside of you
E|---------------------------------|
B|---------------------------------|
G|---------------------------------|
D|---8-8----6-6----8-8----6-6-6-6-6| 2nd guitar pick slide
A|---8-8----6-6----8-8----6-6-6-6-6|
E|---6-6----4-4----6-6----4-4-4-4-4|
Is he all the things you, tried to change me into? 
Is he everything to you?
---------
Does he make you high, make you real? 
Does he make you cry? Does he know the way you feel? 
Love is all around you, your universe is full 
But in my world, there is only you
CHORUS~
E|--------------------------------------------------------------------------|
B|--------------------------------------------------------------------------|
G|--8-8-8-8-8-8--7-7-7-7---8-8-8-8-8-8---5-5-5-5-5-5-5-5-5------------------| 
D|--8-8-8-8-8-8--7-7-7-7---8-8-8-8-8-8---5-5-5-5-5-5-5-5-5--5-5-5-5-5-5-5-5-| 
A|--6-6-6-6-6-6--5-5-5-5---6-6-6-6-6-6---3-3-3-3-3-3-3-3-3--5-5-5-5-5-5-5-5-|
E|----------------------------------------------------------3-3-3-3-3-3-3-3-|

E|----------------------------------------------------------------|
B|----------------------------------------------------------------|
G|-8-8-8-8-8-8-8-8-8----------------------------------------------|
D|-6-6-6-6-6-6-6-6-6---8-8-8-8-8-8-8-8-8---333333333--8-----------|
A|-6-6-6-6-6-6-6-6-6---6-6-6-6-6-6-6-6-6---333333333--8-----------|
E|-4-4-4-4-4-4-4-4-4-----------------------111111111--6-----------|

I can still find the smell 
On my clothes and skin 
E|-------------------------------------|
B|-------------------------------------|
G|-----7-8---78-8------7-8--7-8h10--8~-|
D|---6--------------5------------------|
A|-------------------------------------|
E|-------------------------------------|
Backround~
E|-------------------------------------|
B|-------------------------------------|
G|--10h12p10-10h12---------------------|
D|-------------------------------------|
A|-------------------------------------|
E|-------------------------------------|
I can still find the smell 
On my clothes and skin 
(On my clothes and skin)
E|------------------------------------------------------------------|
B|--99999/8-6-4-4~--------------------------------------------------|
G|------------------------------------------------------------------| 
D|------------------------------------------------------------------| 
A|------------------------------------------------------------------|
E|------------------------------------------------------------------|
I can still see your face..
E|---------------------------------|
B|---------------------------------|
G|---------------------------------|
D|---8-8----6-6----8-8----6-6-6-6-6| 2nd guitar pick slide
A|---8-8----6-6----8-8----6-6-6-6-6|
E|---6-6----4-4----6-6----4-4-4-4-4|
When your sleeping next to him,
IS he all the things you.. tried to change me into?
Tell me does he....
CHORUS~
E|--------------------------------------------------------------------------|
B|--------------------------------------------------------------------------|
G|--8-8-8-8-8-8--7-7-7-7--8-8-8-8-8-8--5-5-5-5-5-5-5-5-5--------------------| 
D|--8-8-8-8-8-8--7-7-7-7--8-8-8-8-8-8--5-5-5-5-5-5-5-5-5--5-5-5-5-5-5-5-5-5-|
A|--6-6-6-6-6-6--5-5-5-5--6-6-6-6-6-6--3-3-3-3-3-3-3-3-3--5-5-5-5-5-5-5-5-5-|
E|--------------------------------------------------------3-3-3-3-3-3-3-3-3-|

E|-----------------------------------------------------------------|
B|-----------------------------------------------------------------|
G|---------------------8-8-8-8-8-8-8-8-8---------------------------|
D|-6-6-6-6-6-6-6-6-6---8-8-8-8-8-8-8-8-8---333333333--8------------|
A|-6-6-6-6-6-6-6-6-6---6-6-6-6-6-6-6-6-6---333333333--8------------|
E|-4-4-4-4-4-4-4-4-4-----------------------111111111--6------------|
Make you high, make you real? 
Does he make you cry? Does he know the way you feel? 
Love is all around you, your universe is full 
But in MY WORLDD, there is only you 
-
Bridge~
I HAD ENOUGH OF FEARS, you let them OUT!!!
Now I wrap myself around you,
Like a blanket full of doubt!
E|------------------------------------------------------------|
B|------------------------------------------------------------|
G|--------------------------------8-8---8-8-8-8--7-7--8-8-8---|
D|--6-6---6-6-6-6--6-6---6-6-6-6--8-8---8-8-8-8--7-7--8-8-8---|
A|--6-6---6-6-6-6--6-6---6-6-6-6--6-6---6-6-6-6--5-5--6-6-6---|
E|--4-4---4-4-4-4--4-4---4-4-4-4------------------------------|
The DARKNESS BURNSSSS(The darkness burns)!
The SUNLIGHT STINGSSS(The sunlight sings)!
E|--------------------------------------------------------------------|
B|--------------------------------------------------------------------|
G|-5-5-5-5-5-5-5s-----------------------------------------------------|
D|-5-5-5-5-5-5-5s--5-5-5-5-5-5---8-8-8-8-8-8-8------------------------|
A|-3-3-3-3-3-3-3s--5-5-5-5-5-5---8-8-8-8-8-8-8------------------------|
E|-----------------3-3-3-3-3-3---6-6-6-6-6-6-6------------------------|
HE'S YOUR EVERYTHING~~~~~

NO DISTORTION~
Does he make you high?
Does he make you real?
E|-------------------------------------------------------------------|
B|-------------------------------------------------------------------|
G|--8-8-8-8--7-7-7-8-------------------------------------------------| 
D|--8-8-8-8--7-7-7-8-------------------------------------------------| 
A|--6-6-6-6--5-5-5-6-------------------------------------------------|
E|-------------------------------------------------------------------|
Does he make you cry?
Does he know the way you feel?
E|-------------------------------------------------------------------|
B|-------------------------------------------------------------------|
G|-5-5-5-5-5-5-5-----------------------------------------------------|
D|-5-5-5-5-5-5-5--5-5-5-5-5-5--6-6-6-6-6-6-6-6-6-6-6-6-6-6-6-6-6-----|
A|-3-3-3-3-3-3-3--5-5-5-5-5-5--6-6-6-6-6-6-6-6-6-6-6-6-6-6-6-6-6-----|
E|----------------3-3-3-3-3-3--4-4-4-4-4-4-4-4-4-4-4-4-4-4-4-4-4-----|

E|-------------------------------------------------------------------|
B|-------------------------------------------------------------------|
G|-8-8-8-8-8-8-8-8-8-8-8-8-8-8-8-8-----------------------------------|
D|-8-8-8-8-8-8-8-8-8-8-8-8-8-8-8-8-----------------------------------|
A|-6-6-6-6-6-6-6-6-6-6-6-6-6-6-6-6-----------------------------------|
E|-------------------------------------------------------------------|
Love is all around you,
Your universe is FULL!
E|---------------------------------------------|
B|---------------------------------------------|
G|---------------------------------------------|
D|3-3-3-3-3-3-3-3-3-3-3-3---8-8-8-8-8-8-8-8----|
A|3-3-3-3-3-3-3-3-3-3-3-3---8-8-8-8-8-8-8-8----|
E|1-1-1-1-1-1-1-1-1-1-1-1---6-6-6-6-6-6-6-6----|
BUT IN MY WORLD...
YOU MAKE ME HIGH!
YOU MAKE ME REAL!!
YOU MAKE ME CRY!!!
NOW YOU KNOW THE WAY I FEEL!!!!!
LOVE IS ALL AROUND YOU,
YOUR UNIVERSE IS FULL
E|------------------------------------------------------------------|
B|------------------------------------------------------------------|
G|--8-8-8-8-8-8---7-7-7-7----5-5-5-5-5-5-5-5-5----------------------| 
D|--8-8-8-8-8-8---7-7-7-7----5-5-5-5-5-5-5-5-5---5-5-5-5-5-5-5-5-5--| 
A|--6-6-6-6-6-6---5-5-5-5----3-3-3-3-3-3-3-3-3---5-5-5-5-5-5-5-5-5--|
E|-----------------------------------------------3-3-3-3-3-3-3-3-3--|

E|------------------------------------------------------------------|
B|------------------------------------------------------------------|
G|---------------------8-8-8-8-8-8-8-8-8----------------------------|
D|-6-6-6-6-6-6-6-6-6---8-8-8-8-8-8-8-8-8---333333333--8hold---------|
A|-6-6-6-6-6-6-6-6-6---6-6-6-6-6-6-6-6-6---333333333--8hold---------|
E|-4-4-4-4-4-4-4-4-4-----------------------111111111--6-------------|
BUT IN MY WORLD!!!!!!!
End~
|-------------|
|--8-8-88-----|
|--8-8-88--8--|
|----------8--|
|-------------|
|-------------|
There is only you.
Tap to rate this tab
 
# A B C D E F G H I J K L M N O P Q R S T U V W X Y Z