Song name
# A B C D E F G H I J K L M N O P Q R S T U V W X Y Z

Sr-71 - Kick Me When Im High tab

-4-0-0-5-0-0-7-0-0-9-0-0-12b14r12---------------------------------------------|
----------------------------------12b14r12------------------------------------|
-------------------------------------------12b14r12-9b11r9--------------------|
-----------------------------------------------------------9b10r9-9/11\9/11\9-|
------------------------------------------------------------------------------|
------------------------------------------------------------------------------|

-------------------------------------------------12---------------------------|
-----------------------------9---9h10p9-12-------12---------------------------|
-----------9------------9/11--------------/13-14----/13-14--------------------|
------9/11---------9/11-------------------------------------------------------|
-9/11---------9/11------------------------------------------------------------|
------------------------------------------------------------------------------|
                                                     very fast hammer
on part
-1212121212121212121212121212121212h14p12h16-12-14-1212-12h14p12h16-12-14-12--|
-1212121212121212121212121212121212-12-12-12-12-12-1212-12-12-12-12-12-12-12--|
------------------------------------------------------------------------------|
------------------------------------------------------------------------------|
------------------------------------------------------------------------------|
------------------------------------------------------------------------------|
                                                   very fast pull off
part
-16b17r16-14---12b14-------14b16r14-12---10b12----14/16\14----12p11p9---------|
---------------------------------------------------------------------12-------|
------------------------------------------------------------------------------|
------------------------------------------------------------------------------|
------------------------------------------------------------------------------|
------------------------------------------------------------------------------|
Tap to rate this tab
 
# A B C D E F G H I J K L M N O P Q R S T U V W X Y Z