Song name
# A B C D E F G H I J K L M N O P Q R S T U V W X Y Z

Sr-71 - My World tab

Hello there, here I am with another tab, I'm currently working a tab pro, but I will 
post it as a regular also for all of you who don't have tab pro. I'll eventually make a 
video cover of all the songs I have tabbed out so far, but until then... :P
I discovered this song on an AMV with Naruto, and I fell in love with it, and after 
forever i finally decided to tab it. Keep rockin! \o/
E-mail: kagomeninjademon@yahoo.com (email me if you see any corrections that need to be made)
---------------------

Intro

e|---------------------------------|
B|---------------------------------|
G|---7-8---7-8---8---7-8---7-8---8-|
D|-6-----6-----6---5-----5-----5---|
A|---------------------------------|
E|---------------------------------|

e|----------------------------------|
B|----------------------------------|
G|---7-8---7-8---8---7-8---7-8-10-7-|
D|-6-----6-----6---5-----5----------|
A|----------------------------------|
E|----------------------------------|

Verse

e|-----------------------|   |-------------------|
B|---------9999-8-6-444--|   |-1h2-3h4-5h6-5h6---|
G|-----------------------|   |-------------------|
D|-----------------------|   |-------------------|
A|-----------------------|   |-------------------|
E|-----------------------|   |-------------------|

e|-----------------------|   |-------------------|
B|-----------------------|   |-------------------|
G|-0-6-7-9-6-7-----------|   |-0-6-7-9-11-7------|
D|-----------------------|   |-------------------|
A|-----------------------|   |-------------------|
E|-----------------------|   |-------------------|

Pre-Chorus

e|-------------------------|
B|-------------------------|
G|-------------------------|
D|-8-8---6-6---8-8---6~----|
A|-8-8---6-6---8-8---6~----|
E|-6-6---4-4---6-6---4~----|

Chorus

e|-------------------------------------------------------------------------|
B|-------------------------------------------------------------------------|
G|-8888888888888888--8888888888888888--------------------------------------|
D|-8888888888888888--7777777777777777--1010101010101010--5555555555555555--|
A|-6666666666666666--6666666666666666--1010101010101010--5555555555555555--|
E|-------------------------------------8888888888888888--3333333333333333--|

e|-----------------------------------------------------------|
B|-----------------------------------------------------------|
G|------------------(ones not elevens)-----------------------|
D|-6666666666666666--1111111111111111--3333333333333333--8~--|
A|-6666666666666666--1111111111111111--3333333333333333--8~--|
E|-4444444444444444--------------------1111111111111111--6~--|

(for post chorus, play last part of intro)

(for 2nd verse, play first block of verse 1)

Pre-Chorus II

e|---------------------------------|
B|---------------------------------|
G|---------------------------------|
D|-8-8---6-6---8-8-----------------|
A|-8-8---6-6---8-8--//pickslide//--|
E|-6-6---4-4---6-6--//---------//--|

Chorus (on last note of chorus play 16x)

Bridge

e|-------------------------------------------------------------------------------|
B|-------------------------------------------------------------------------------|
G|------------------888-8-8-888-8-8----------------------------------------------|
D|-666-6-6-666-6-6--666-6-6-777-7-7--10-10-10-10-10-10-9-9-9-9-9-9-9-9--8--------|
A|-666-6-6-666-6-6--666-6-6-666-6-6--10-10-10-10-10-10-9-9-9-9-9-9-9-9--8-(x16)--|
E|-444-4-4-444-4-4--------------------8-8-8-8-8-8-8-8--7-7-7-7-7-7-7-7--6--------|

Chorus

e|-----------------------------------------------------------------------------------------|
B|-----------------------------------------------------------------------------------------|
G|-8-888~--9-999~--------------------------------------------------------------------------|
D|-8-888~--8-888~--1010101010101010--5555555555555555--6666666666666666--1111111111111111--|
A|-----------------1010101010101010--5555555555555555--6666666666666666--1111111111111111--|
E|-----------------8888888888888888--3333333333333333--4444444444444444--------------------|

e|------------------------------------|
B|------------------------------------|
G|------------------------------------|
D|-3333333333333333--88-88-88-88-888--|
A|-3333333333333333--88-88-88-88-888--|
E|-1111111111111111--66-66-66-66-666--|

(for this last chorus play the very first chorus after verse 1)

Outro

e|---------------|
B|-9-9-9-9-------|
G|-8-8-8-8---8~--|
D|-----------8~--|
A|---------------|
E|---------------|

--------
If you see any corrections that need to be made, please comment or email. Thanks :D
Tap to rate this tab
# A B C D E F G H I J K L M N O P Q R S T U V W X Y Z