Guitaretab - guitar tabs
Song name
# A B C D E F G H I J K L M N O P Q R S T U V W X Y Z

Sr-71 - Let It Whip tab

-------------------------------------------------------------------------------
			    Let it Whip  Sr-71
-------------------------------------------------------------------------------
Tabbed by: Connor14
Email: TexasBRules@aol.com

Tuning: CGCFAD

Intro and verse riff
                                         (add this part sometimes)
D||-------------------------------------------------------------------||
A||-----------^------------------^-----------------------------^--^---||
F||-----5-----5-----------5------7------(---5-----5-------5-----7--5)-||
C||--7-----7-----------7-----7----------(7-----7-------7-----7------)-||
G||-------------------------------------------------------------------||
C||-------------------------------------------------------------------||

Verse:
D||-------------------------------------------------------------------||
A||-------------------------------------------------------------------||
F||----------8--------------------------------------------------------||
C||--6---8---8---3----------------------------------------------------||
G||--6---8---6---3----------------------------------------------------||
C||--6---8-------3----------------------------------------------------||
[ Tab from: http://www.guitaretab.com/s/sr-71/44161.html ]
Chorus:   (listen for the timing and when to come in)
d----------------------------------------------------------------------------|
A----------------------------------------------------------------------------|
F--------------------8---------------------------------8---6-----------------|
C--6---8-xxxxxxx----8--3-xxxxxxxxxx--(x3)--6--8-xxxxx--8---6---3---6---8-----| 
G--6---8-xxxxxxx----6--3-xxxxxxxxxx--------6--8-xxxxx--6---4---3---6---8-----|
C--6---8-xxxxxxx-------3-xxxxxxxxxx--------6--8-xxxxx----------3---6---8-----|
Verse
Chorus

Bridge:  Do this whole part twice( listen for timing also)
d|---------------------------------------------------------------------------|
A|---------------------------------------------------------------------------|
F|---------------------------------------------------------------------------|
C|--1--------6--(x8)--3-------8---------8--6--4--3---------------------------|
G|--1-(x16)--6--------3-(x8)--8-(x24)---8--6--4--3---------------------------|
C|--1--------6--------3-------8---------8--6--4--3---------------------------|
Chorus
Bridge Chorus
Chorus

End on:
d|---------------------------------------------------------------------------|
A|---------------------------------------------------------------------------|
F|---------------------------------------------------------------------------|
C|---8~----------------------------------------------------------------------|
G|---8~----------------------------------------------------------------------|
C|---8~----------------------------------------------------------------------|


| /  slide up
| \  slide down
| h  hammer-on
| p  pull-off
| ~  vibrato
| +  harmonic
| x  Mute note
===============================================================================
Related for Let It Whip tab