Song name
# A B C D E F G H I J K L M N O P Q R S T U V W X Y Z

Sr-71 - Now Thats Over tab

here is what I believe to be the right tabs for this
paticular song.  feel free to e-mail me if any problems
at waldolauzon007@hotmail.com


intro:palm mute after playing chord then pick


e-----------------------------------------------------------------------------|
b------------/7----5----------------------5----7----------/7----5-------------|
g------7----------------7-----------/7-------------------------------7--------|
d------7----------------------7----------------------5------------------------|
a------5----------------------7----------------------5------------------------|
e-----------------------------5----------------------3------------------------|

e----------------------------------------------------------------------------|
b------/8----7----5----7----5------------------------------------------------|
g----------------------------------------------------------------------------|
d----------------------------------------------------------------------------|
a----------------------------------------------------------------------------|
e----------------------------------------------------------------------------|


verses:play chord once then palm mute until next chord

chords: d g a

chorus:strum all chords

chords: d a g a d a g a d a g a g g a a d  and back to intro
Tap to rate this tab
# A B C D E F G H I J K L M N O P Q R S T U V W X Y Z