Song name
# A B C D E F G H I J K L M N O P Q R S T U V W X Y Z

Sr-71 - Little Asshole tab

Highlighted       Show chord diagrams
Tabbed By: Mike

	This is the hidden track on the new SR-71 CD HERE WE GO AGAIN
	 Its all acoustic with some bass and tambourine in the back

Standard Tuning

	***** pay attention to what i have called these progressions
	      so you dont get too confused ****


          Cp1					  Cp2
e-----------------------------------	e-----------------------------------|
B----1---1---1---1---1---1----------	B----1---1---1---1---1---1----------|
G----0---0---0---0---0---0-xx-------	G----0---0---0---0---0---0-xx-------|
D--------------------------xx-------	D--------------------------xx-------|
A--3-------3-------3-------xx---0-2-	A--3-------3-------3-------xx-3-2-0-|
E------3-------3-------3---xx-3-----	E------3-------3-------3---xx-------|

	  Cp3					  Fp
e----------------------------------	e-----------------------------------|
B----1---1---1---1---1---1---1---1-	B----1---1---1---1---1---1-xx-------|
G----0---0---0---0---0---0---0---0-	G----2---2---2---2---2---2-xx-------|
D----------------------------------	D--3---3---3---3---3---3---xx-------|
A--3-------3-------3-------3-------	A--3---3---3---3---3---3---xx---0-2-|
E------3-------3-------3-------3---	E-----------------------------3-----|

	  Cpend
e-------------------|
B----1---1----------|
G----0---0-xx-------|
D----------xx-------|
A--3-------xx---0-2-|
E------3---xx-3-----|

All other regular chords are as follows:

    C          G          F          Em         D

e---0---   e---3---   e---1---   e---0---   e---2---|
B---1---   B---3---   B---1---   B---0---   B---3---|
G---0---   G---0---   G---2---   G---0---   G---2---|
D---2---   D---0---   D---3---   D---2---   D---0---|
A---3---   A---2---   A---3---   A---2---   A---0---|
E---3---   E---3---   E---1---   E---0---   E-------|

During the second and third choruses the lead plays this:

e----8---8-10-12-10-8---8---8-10-12-----8---8-10-12-10-8---8---8-10-12-|
B--8---8--------------8---8-----------8---8--------------8---8---------|
G----------------------------------------------------------------------|
D----------------------------------------------------------------------|
A----------------------------------------------------------------------|
E----------------------------------------------------------------------|

e-----13----13-15-17-15-13----13----13-15-17-----8---8-10-12-10-8---8---8-10-12-|
B--13----13----------------13----13------------8---8--------------8---8---------|
G-------------------------------------------------------------------------------|
D-------------------------------------------------------------------------------|
A-------------------------------------------------------------------------------|
E-------------------------------------------------------------------------------|

e----------------------------------------------------------10--------------|
B----8---8-10-12-10-8---6---6-8-10-8-6---8---8-10-12-10-12----13------13---|
G--7---7--------------5---5------------7---7----------------------12--12---|
D--------------------------------------------------------------------------|
A--------------------------------------------------------------------------|
E--------------------------------------------------------------------------|

Intro

C
Hey, little asshole
  G
I thought I told you
   F              C
to stay out of my room.


Chorus
   Cp1
My daddy used to call me little asshole
     Cp2
When he got home from work every night
    Fp
But thats because i used to break everything he owned
 Cp2
Everything that he thought was nice

    G
But sixty-five is gettin old
F
Daddy's gettin a little slow
    G 					    Cpend
And I'm gonna break everything else he owns tonight.


Verse 1 - palm mute notes on down stroke (the notes on the top 3 strings EAD)
   Cp1
It all started back in seventy-seven
      Cp3
When God sent this angel down from heaven
 Fp
You hoped I'd become, the king of my class
    Cp2
But I turned out to be a royal pain in the ass

 G
You decided to call me Mitch
    F
Well, paybacks are a bitch
      G					   G  F  Em D
And I guess I'm just a punishment for your past.


Chorus


Verse 2 - palm mute notes on down stroke (the notes on the top 3 strings EAD)
    Cp1
You decide to send me off to Shepard-Pratt
               Cp2
Well they said Sir we'll take care of your little brat
 Fp
First they diagnosed me with hyperactivity
 Cp2
Then they said I had A B C D E F and G

G
Said I'd be a problem child
F
Always just a little wild
         G				G  F  Em D
Well the apple doesnt fall far from the tree.


Chorus - at the end of this chorus where it says to play
	 Cpend above play Cp3 instead

Bridge
		   C
I can hear him say Hey, little asshole
  G			F              Cpend
I thought i told you to stay out of my room


Verse 3 - palm mute notes on down stroke (the notes on the top 3 strings EAD)
 Cp1
Daddy thought he wasted all his money
Cp2
Sendin me off to the university
    Fp
But he didnt realize my long term scheme
     Cp2
Only five and one half years to get my degree.

     G
When I got home I'd never guess
F
Daddy had a newe address
	G				      G  F  Em D
And the note said there was no room there for me


Final Chorus
   Cp1
My daddy used to call me little asshole (you little asshole)
     Cp2
When he got home from work every night (what the hell did you do now)
    Fp
But thats because i used to break everything he owned
 Cp2
Everything that he thought was nice

     G
Well sixty-five is gettin old
F
Daddy's gettin a little slow
  G
I think it's time for me to go
    F
The basements gettin mighty cold
    G					   Cp3
But not before I break everything else tonight.

 LEAD GUITAR PLAYS THIS DURING THIS LAST CHORUS.

e----8---8-10-12-10-8---8---8-10-12-10-8---8---8-10-12-10-8---8---8-10-12-10-|
B--8---8--------------8---8--------------8---8--------------8---8------------|
G----------------------------------------------------------------------------|
D----------------------------------------------------------------------------|
A----------------------------------------------------------------------------|
E----------------------------------------------------------------------------|

e----13----13-15-17-15-13----13----13-15-17-15-13---8---8-10-12-10-8---8---8-10-12-10-8-|
B-13----13----------------13----13----------------8---8--------------8---8--------------|
G---------------------------------------------------------------------------------------|
D---------------------------------------------------------------------------------------|
A---------------------------------------------------------------------------------------|
E---------------------------------------------------------------------------------------|

e--------------------------------------------------------------------------|
B----8---8-10-12-10-8---6---6-8-10-8-6---8---8-10-12-10-8---6---6-8-10-8-6-|
G--7---7--------------5---5------------7---7--------------5---5------------|
D--------------------------------------------------------------------------|
A--------------------------------------------------------------------------|
E--------------------------------------------------------------------------|

e----------------------10-8-----8-----8-|
B----8---8-10-12-10-12-------8-----8----|
G--7---7--------------------------------|
D---------------------------------------|
A---------------------------------------|
E---------------------------------------|

Outro
                   C
I can hear him say Hey, little asshole
  G                     F              C
I thought i told you to stay out of my room
C
Hey, little asshole
  G			F	       C
I thought i told you to stay out of my room


There u have it. Hope u didnt get too confused with the way i tabbed it.
Tap to rate this tab
# A B C D E F G H I J K L M N O P Q R S T U V W X Y Z