Song name
# A B C D E F G H I J K L M N O P Q R S T U V W X Y Z

Sr-71 - All American tab

Artist: SR-71
Song: All American
Album: Here We Go Again

Tabbed By: Revlin
8/11/06


Probably my favorite SR-71 song. Enjoy.


Tune down a half step.


Intro/Chorus
eb|-------------------------------------------------------------------|
Bb|-------------------------------------------------------------------|
Gb|--77777-77777-777--------------------------------------------------|
Db|--77777-77777-777-77777-77777-777-99999-99999-999-55555-55555-555--|
Ab|--55555-55555-555-77777-77777-777-99999-99999-999-55555-55555-555--|
Eb|------------------55555-55555-555-77777-77777-777-33333-33333-333--|


First Verse P.M
eb|------------------------------|
Bb|------------------------------|
Gb|--7---------------------------|
Db|--7------5------9------7------|
Ab|--5-x16--5------9------7------|
Eb|---------3-x16--7-x16--5-x16--|x2
     .      .      .      .

Chorus

Pickslide then play the riff.
eb|-------------------------------------------------------------------|
Bb|-------------------------------------------------------------------|
Gb|--77777-77777-777--------------------------------------------------|
Db|--77777-77777-777-77777-77777-777-99999-99999-999-55555-55555-555--|
Ab|--55555-55555-555-77777-77777-777-99999-99999-999-55555-55555-555--|
Eb|------------------55555-55555-555-77777-77777-777-33333-33333-333--|x2


Second Verse
eb|------------------------------|
Bb|------------------------------|
Gb|--7---------------------------|
Db|--7------5------9------7------|
Ab|--5-x16--5------9------7------|
Eb|---------3-x16--7-x16--5-x16--|x1
     .      .      .      .

Chorus
eb|-------------------------------------------------------------------|
Bb|-------------------------------------------------------------------|
Gb|--77777-77777-777--------------------------------------------------|
Db|--77777-77777-777-77777-77777-777-99999-99999-999-55555-55555-555--|
Ab|--55555-55555-555-77777-77777-777-99999-99999-999-55555-55555-555--|
Eb|------------------55555-55555-555-77777-77777-777-33333-33333-333--|x2


Bridge
   "Smashing bottles..."
eb|--------------------------|
Bb|--------------------------|
Gb|--------------------------|
Db|--222-45-4-7--222-45-4-5--|
Ab|--222-45-4-7--222-45-4-5--|
Eb|--000-23-2-5--000-23-2-3--|


End with:
eb|----------------|
Bb|----------------|
Gb|--7-7-----------|
Db|--7-7-7--9-9-5~-|
Ab|--5-5-7--9-9-5~-|
Eb|------5--7-7-3~-|


Comments, corrections, e-mail me at SoftAsylum@gmail.com
Tap to rate this tab
 
# A B C D E F G H I J K L M N O P Q R S T U V W X Y Z