Song name
# A B C D E F G H I J K L M N O P Q R S T U V W X Y Z

Sr Bikini - Aqua Vulva tab

INTRO                                        A
e)---------------------------------------------|
B)---------------------------------------------|
G)---------------------------------------------|
D)-------------2--0-0--------------------------|
A)------0-0--3--------2-3-2-3-0-0-0----------0-|
E)-----------------------------------0-0-3-3---|
RIFF 1
e)------------------------------------------------------------|
B)------------------------------------------------------------|
G)------------------------------------------------------------|
D)------------------------------------------------------------|
A)------------------------------------------------------------|
E)-0h1-1-1-1-1-1-1-1--3-3/5-3-1-5-5-5-5-5--7-7--6-6--5-5--3-3-|
RIFF 2
e)----------------------------------|
B)----------------------------------|
G)----------------------------------|
D)----------------------------------|
A)----------------------------------|
E)-0h1-1-1-1-1-1-1-1--3-3/5-3-1-0~~-|

RIFF 3
e)---------------|
B)---------------|
G)---------------|
D)-2-0---0-------|
A)-----3---3-2-0-|
E)---------------|

RIFF 4
e)-5v------10v----5v--|
B)-5v------10v----5v--|
G)-5v------10v----5v--|
D)--------------------|
A)--------------------|
E)--------------------|

RIFF 5
e)-10v--3v--10v---|
B)-10v--3v--10v---|
G)-10v--3v--10v---|
D)----------------|
A)----------------|
E)----------------|

RIFF 6

e)----------------------------------------------------|
B)----------------------------------------------------|
G)----------------------------------------------------|
D)-2-3----2-3--2-3-5-3-3-3-2--------2-3--3/5/7/5-3-2--|
A)----------------------------------------------------|
E)----------------------------------------------------|
RIFF 7
e)------------------------------------------------------------|
B)------------------------------------------------------------|
G)-----9-10~----9-10-9-10-12-10-10-9----9-10-10/12/13-12-10-9-|
D)------------------------------------------------------------|
A)------------------------------------------------------------|
E)------------------------------------------------------------|


Am
e)-5--
B)-5--
G)-5--
D)-7--
A)-7--
E)-5--

www.srbikini.net
Tap to rate this tab
# A B C D E F G H I J K L M N O P Q R S T U V W X Y Z