Song name
# A B C D E F G H I J K L M N O P Q R S T U V W X Y Z

Sr Bikini - Calipso Ago-go tab

e |-5--6--5---5--6--5---5--6--5---5--6--5--|
B |-5--6--5---5--6--5---5--6--5---5--6--5--|
G |-6--7--6---6--7--6---6--7--6---6--7--6--|
D |-7--8--7---7--8--7---7--8--7---7--8--7--|
A |-7--8--7---7--8--7---7--8--7---7--8--7--|
E |-5--6--5---5--6--5---5--6--5---5--6--5--|

e |----------------------------------------|
B |-3-----5-6-----------3-----5-6----------|
G |---6-7-----7-6-2-------6-7-----7-6------|
D |----------------------------------------|
A |----------------------------------------|
E |----------------------------------------|

e |---------------------------------5------|
B |-3-----5-6-----------3-----5-3-5--------|
G |---6-7-----7-6-2-------6-7--------------|
D |----------------------------------------|
A |----------------------------------------|
E |----------------------------------------|

e |->3->6->5->3->6-5-6-5-6-5-6-5-6-5-------|
B |----------------------------------------|
G |----------------------------------------|
D |----------------------------------------|
A |----------------------------------------|
E |----------------------------------------|

e |----------------------------------------|
B |-3-----5-6-----------3-----5-6----------|
G |---6-7-----7-6-2-------6-7-----7-6------|
D |----------------------------------------|
A |----------------------------------------|
E |----------------------------------------|

e |---------------------------------5------|
B |-3-----5-6-----------3-----5-3-5--------|
G |---6-7-----7-6-2-------6-7--------------|
D |----------------------------------------|
A |----------------------------------------|
E |----------------------------------------|

e |->3->6->5->3->6-5-6-5-6-5-6-5-6-5-------|
B |----------------------------------------|
G |----------------------------------------|
D |----------------------------------------|
A |----------------------------------------|
E |----------------------------------------|

e |------------------------------------------------|
B |------------------------------------------------|
G |------------------------------------------------|
D |------------------------------------------------|
A |->5->4->5->7->8->5->4->0-->5->4->5->7->8->5->4--|
E |------------------------------------------------|

e |------------------------------------------------|
B |------------------------------------------------|
G |------------------------------------------------|
D |------------------------------------------------|
A |->5->4->5->7->8->5->4->0-->5->4->5->7->8->5->4--|
E |------------------------------------------------|

    ~  ~  ~   ~  ~
e |-3--6--5---3--6--5-6-5-6-5-6-5-6-5-|
B |-3--6--5---3--6--5-6-5-6-5-6-5-6-5-|
G |-4--7--6---4--7--------------------|
D |-5--8--7---5--8--------------------|
A |-5--8--7---5--8--------------------|
E |-3--6--5---3--6--------------------|

e |------------------------------------------------|
B |------------------------------------------------|
G |------------------------------------------------|
D |------------------------------------------------|
A |->5->4->5->7->8->5->4->0-->5->4->5->7->8->5->4--|
E |------------------------------------------------|

e |------------------------------------------------|
B |------------------------------------------------|
G |------------------------------------------------|
D |------------------------------------------------|
A |->5->4->5->7->8->5->4->0-->5->4->5->7->8->5->4--|
E |------------------------------------------------|

    ~  ~  ~   ~  ~
e |-3--6--5---3--6--5-6-5-6-5-6-5-6-5-|
B |-3--6--5---3--6--5-6-5-6-5-6-5-6-5-|
G |-4--7--6---4--7--------------------|  
D |-5--8--7---5--8--------------------|
A |-5--8--7---5--8--------------------|
E |-3--6--5---3--6--------------------|
Tap to rate this tab
# A B C D E F G H I J K L M N O P Q R S T U V W X Y Z