Song name
# A B C D E F G H I J K L M N O P Q R S T U V W X Y Z

Ss Decontrol - The Kids Will Have Their Say tab

recordlabel: xclaim
type label: indie

http://www.myspace.com/ssdboston
http://www.xclaim.com

E||----------------------|
B||----------------------|
G||----------------------|
D||--3----5----4----3----|
A||--3----5----2----1----|
E||--1----3--------------| x2

|--------------------|
|--------------------|
|--------------------|
|------------7--6----|
|--8----5----5--4----|
|--6----3------------| x8
   
this sounds tremolo picked:
----------------------||
----------------------||
----------------------||
--4----5----9---------||
--2----3----7---------||
----------------------|| x4

|--------------------|
|--------------------|
|--------------------|
|------------7--6----|
|--8----5----5--4----|
|--6----3------------| x8

----------------------||
----------------------||
----------------------||
--4----5----9---------||
--2----3----7---------||
----------------------|| x4

|--------------------|
|--------------------|
|--------------------|
|------------7--6----|
|--8----5----5--4----|
|--6----3------------| x2

----------------------||
----------------------||
----------------------||
--4----5----9---------||
--2----3----7---------||
----------------------|| x2

end on E5
Tap to rate this tab
 
# A B C D E F G H I J K L M N O P Q R S T U V W X Y Z