Song name
# A B C D E F G H I J K L M N O P Q R S T U V W X Y Z

Ss501 - Because Im Stupid tab

Because I'm Stupid
Accoustic Guitar (Standard Tuning)

Ich habe probiert, die Tabs von diesem Video rauszufinden:
http://www.youtube.com/watch?v=BLt7fvr4Dc4

So this are the tabs of this song.
Please be nice :)
This is [really] my first tab.


|----------2---------0---|
|------3---2---------2---|
|-----4----0-----2---2---|
|----4----------2--------|
|---2----------2---------|
|-------------2----------|

|------------------2-2h3p2--|
|------------2----3-------3-|
|------0----2----2----------|
|-----0----2----0-----------|
|----1----0-----------------|
|---3-----------------------|

|------------------2-2/5----|
|------------2----3---------|
|------0----2----2----------|
|-----0----2----0-----------|
|----1----0-----------------|
|---3-----------------------|

|------------------------|
|---------0----------2~--|
|------0---0-------3-----|
|-----0-----0----4-------|
|----1----------4--------|
|---3----------2---------|

Tap to rate this tab
 
# A B C D E F G H I J K L M N O P Q R S T U V W X Y Z