Song name
# A B C D E F G H I J K L M N O P Q R S T U V W X Y Z

Ss501 - Green Peasintro tab

Green Peas(Intro)óSS501

This is the first time I tried tabbing a picking intro,I am not really good at this,but
what I heard and found out can help you to find out which string they really played in
song.I really really love the song and thatís why I took my time to work this.Comment 
rate if you like.And I totally accept critism,so if there is any chords that I tabbed is
tell.

And if you have any question,you can always ask me by sending me an e-mail to paige_hthr@yahoo.com

Thank you!

Tuning : Standard

e|--------------1-0-------3-1-0-----------------------------------------------|
B|--------3h5------3-5----------3-1-1-3-1-0-1-3-1-----------------------------|
G|--0h5-----------------------------------------------------------------------|
D|----------------------------------------------------------------------------|
A|----------------------------------------------------------------------------|
E|----------------------------------------------------------------------------|

e|--------------1-0----5-3-1-0--------------1-0------8-------------------------|
B|--------3h5------3------------3-1-3-1-3------1-------------------------------|
G|--0h5---------------------------------------------0--------------------------|
D|-----------------------------------------------------------------------------|
A|-----------------------------------------------------------------------------|
E|-----------------------------------------------------------------------------|

And if any of you able to find out whatís the strumming chords,please tell.I am looking
to play the song.
Tap to rate this tab
# A B C D E F G H I J K L M N O P Q R S T U V W X Y Z