Guitaretab - guitar tabs
Song name
# A B C D E F G H I J K L M N O P Q R S T U V W X Y Z

Sss - Quiet Before The Storm tab

Song: Quiet Before The Storm
Artist: SSS
Album: Short Sharp Shock

Tabbed by: garyhann
Email: garyhann@live.co.uk

Tuning: Standard


  0:00  Guitar 1
e|--------------------------------------------|
B|---------0~------------0--------------------|
G|---------------------3---3-0~----------0----|
D|--2~-------------------------------//4---4--|
A|--2~----------------------------------------|
E|--0~----------------------------------------|
[ Tab from: http://www.guitaretab.com/s/sss/186522.html ]
  0:41  Guitar 1
e|-------------------------------------------------------------|
B|-------------------------------------------------------------|
G|---------//5-4---4~-----------------//5-4--------------------|
D|--2~-------------------------2~------------------5------0----|
A|--2~-------------------------2~----------------5------3---3--|
E|--0~-----------0-------------0~-----------0-3------1---------|
                 .                          .

  1:01  Guitar 2
e|-------------------------------------------------------------------|
B|-------------------------------------------------------------------|
G|-------------------------------------------------------------------|
D|--2-------------------------------2--------------------5------0----|
A|--2-2-2-2-2-2-2-2-2-2-2-2-2-2-2-2-2-2-2-2-2-2-2-2----5------3---3--|
E|--0-0-0-0-0-0-0-0-0-0-0-0-0-0-0-0-0-0-0-0-0-0-0-0-3------1---------|
      . . . . . . . . . . . . . . .   . . . . . . . 




www.myspace.com/shortsharpshockuk