Song name
# A B C D E F G H I J K L M N O P Q R S T U V W X Y Z

St Germain - Sure Thing tab

v - fast hammer on & off repeatedly
p - pull of
^ - slight bend
Reverb, slight muffled distortion.
This is a sweet intro. Couldn't find this tab on the web so I had a crack at it. listen 
the track for the timing and sound. Peace...

-------------------------------------------------------------------------|
--------------------6^---------------------------------------------------|
----------------5-7----7-5-----------------------------------------------|
-5p3---------/7------------7-5b7-5p3-------------------------------------|
-----5v3v5v3-------------------------5v3v5v3-----------------------------|
-------------------------------------------------------------------------|

-------------------------------------------------------------------------|
------------------------------------6/8----------------------------------|
---5/7-5/7-5/7-5/7-5/7-5--------5-7--------------------------------------|
-7-----------------------7-5^-7---------7\5-3-5b7-5p3--------------------|
------------------------------------------------------5v3v5v3------------|
-------------------------------------------------------------------------|

-5--x--x--5--x--x--5--x--x--5--x--x--5--x--x--5-x-x-10-x-10-x-x-x-10-------|
-5--x--x--5--x--x--5--x--x--5--x--x--5--x--x--5-x-x-10-x-10-x-x-x-10-------|
-5--x--x--5--x--x--5--x--x--5--x--x--5--x--x--5-x-x-10-x-10-x-x-x-10-------|
-5--x--x--5--x--x--5--x--x--5--x--x--5--x--x--5-x-x-10-x-10-x-x-x-10-------|
-7--x--x--7--x--x--7--x--x--7--x--x--7--x--x--7-x-x-12-x-12-x-x-x-12-------|
-5--x--x--5--x--x--5--x--x--5--x--x--5--x--x--5-x-x-10-x-10-x-x-x-10-------|

-5--x--x--5-x-x-10-x-10-x-x-x-10-------|
-5--x--x--5-x-x-10-x-10-x-x-x-10-------|
-5--x--x--5-x-x-10-x-10-x-x-x-10-------|  rhythm repeated through song
-5--x--x--5-x-x-10-x-10-x-x-x-10-------|
-7--x--x--7-x-x-12-x-12-x-x-x-12-------|
-5--x--x--5-x-x-10-x-10-x-x-x-10-------|
Tap to rate this tab
# A B C D E F G H I J K L M N O P Q R S T U V W X Y Z