Song name
# A B C D E F G H I J K L M N O P Q R S T U V W X Y Z

St Vincent - Surgeon tab

-------------------------------------------------------------------------------
                             Surgeon (just the phrase) - St Vincent
-------------------------------------------------------------------------------
Tabbed by: Jake Antoun
Email: jakeantoun@ymail.com

Tuning: Down a whole step with a capo on 7

Yo guys so this is just the phrase she plays.  Watch my youtube video here to see closer 
how she does it: http://www.youtube.com/watch?v=g0TFkCUMk3g&feature=youtu.be

i'm just going to tab this out as if the capo isn't on the guitar.

D|---9p\--7--7-----12\10--7--7----14p\--7--7---12-----------------------------|
A|---9p\--7--7-----9p\----7--7----15p\--7--7----9-----------------------------|
F|---9p\--7--7-----9p\----7--7----14p\--7--7----9-----------------------------|
C|---9p\--7--7-----9p\----7--7----16p\--7--7----9--------------7-h-9-11\------|
G|---------------------------------------------------7-h-9-h-11---------------|
D|----------------------------------------------------------------------------|



************************************

| /   slide up
| \   slide down
| h   hammer-on
| p   pull-off
| ~   vibrato
| +   harmonic
| x   Mute note
| b   Bend
| pb  Pre-bend
| br  Bend release
| pbr Pre-bend release
| brb Bend release bend

************************************
Tap to rate this tab
# A B C D E F G H I J K L M N O P Q R S T U V W X Y Z