Song name
# A B C D E F G H I J K L M N O P Q R S T U V W X Y Z

St Vincent - Marrow tab

-------------------------------------------------------------------------------
                              MARROW - St. Vincent                             
-------------------------------------------------------------------------------
Tabbed by: Micah Jayne
E-mail: micahjayne@gmail.com

Tuning: D# G# C# F# A# D# (Down a half step)

Enjoy!


Intro (0:00) (no guitar)

Verse 1 (0:17) (no guitar)

Chorus 1 (0:51) Lots of fuzz!

D#|--------------------------------|
A#|-----------------9--9/11--------|
F#|--------------------------------|
C#|----------8---------------------|
G#|---7----4---9999----------------|
D#|-7----4------------------6-2222-| X2

(1:09)

D#|---------------------------------|
A#|--------11-----------------------|
F#|-11-9-8----9---------8-----------|
C#|--------------11--9-----9-8-9-11-|
G#|---------------------------------|
D#|---------------------------------|

Verse 2 (1:13)

No guitar until the very end:

(1:31)

D#|---------------------|
A#|-9----11----13----15-|
F#|---------------------|
C#|---------------------|
G#|---------------------|
D#|---------------------|

(very creepy sounding)

Chorus 2 (1:40)

D#|--------------------------------|
A#|-----------------9--9/11--------|
F#|--------------------------------|
C#|----------8---------------------|
G#|---7----4---9999----------------|
D#|-7----4------------------6-2222-| X2

(1:48)

A bunch of scratching, and then:

(1:51)

D#|---------|
A#|---------|
F#|---------|
C#|---------|
G#|---------|
D#|-7-6-7-9-|

Bridge 1 (1:53)

D#|-------------------------------------------|
A#|-------------------------------------------|
F#|-------------------------------------------|
C#|-------------------------------------------|
G#|-------7-----------------------------------|
D#|-6-7-9---9--7--4--6--2222----4--6--0--2222-| X4

During the second half of the above riff, sax plays this (2:02):

D#|-------------------------------------------------------|
A#|--------11---------------------------------------------|
F#|-11-9-8----9---------8-----------------11--9--8--------|
C#|--------------11--9-----9-8-9-11----8-----------11-9-8-|
G#|-------------------------------------------------------|
D#|-------------------------------------------------------| X2

Solo (2:10)
Lots of other craziness going on here, but this is the main part
She plays this with tons of fuzz and possibly an octaver and/or detuner

D#|-------------------|
A#|-11b----11b----11b-|
F#|-----9b-----9b-----|
C#|-------------------|
G#|-------------------|
D#|-------------------| X4

Chorus 3 (2:28)

Bridge 2 (2:45)

D#|-------------------------------------------|
A#|-------------------------------------------|
F#|-------------------------------------------|
C#|-------------------------------------------|
G#|-------7-----------------------------------|
D#|-6-7-9---9--7--4--6--2222----4--6--0--2222-| X7

D#|----------------------------------------------|
A#|----------------------------------------------|
F#|----------------------------------------------|
C#|----------------------------------------------|
G#|-------7--------------------------------------|
D#|-6-7-9---9--7--4--6--2222----19\4--6--0--2222-|

During the second half of the above riff, sax plays this (3:02):

D#|-------------------------------------------------------|
A#|--------11---------------------------------------------|
F#|-11-9-8----9---------8-----------------11--9--8--------|
C#|--------------11--9-----9-8-9-11----8-----------11-9-8-|
G#|-------------------------------------------------------|
D#|-------------------------------------------------------| X4




************************************

| /   slide up
| \   slide down
| h   hammer-on
| p   pull-off
| ~   vibrato
| +   harmonic
| x   Mute note
| b   Bend
| pb  Pre-bend
| br  Bend release
| pbr Pre-bend release
| brb Bend release bend

************************************
Tap to rate this tab
# A B C D E F G H I J K L M N O P Q R S T U V W X Y Z