Song name
# A B C D E F G H I J K L M N O P Q R S T U V W X Y Z

St Vincent - Actor Out Of Work Acoustic tab

INTRO
e----------------|
B-----10------10-|
G-----9-------9--|
D-----8-------8--|
A----------10----|
E-8-8----8-------|X4

e----------------|
B-----10------10-|
G-----9-------9--|
D-----8-------8--|
A----------10----|
E-8-8----8-------|X4
 You're a supplement, you're a salve/you're a bandage, pull it off

e-------------|
B-----6-----6-|
G-----5-----5-|
D-----4-----4-|
A---------6---|
E-4-4---4-----|X2
 I can quit you, cut it out

e----------------|
B-----10------10-|
G-----9-------9--|
D-----8-------8--|
A----------10----|
E-8-8----8-------|X2
 You're a patient, iron lung

e----------------|
B-----10------10-|
G-----9-------9--|
D-----8-------8--|
A----------10----|
E-8-8----8-------|X4
 (vocalizing)

e----------------|
B-----10------10-|
G-----9-------9--|
D-----8-------8--|
A----------10----|
E-8-8----8-------|X4
 You're a cast signed, broken arm/ you're an actor out of work

e-------------|
B-----6-----6-|
G-----5-----5-|
D-----4-----4-|
A---------6---|
E-4-4---4-----|X2
 You're a liar and that's the truth

e----------------|
B-----10------10-|
G-----9-------9--|
D-----8-------8--|
A----------10----|
E-8-8----8-------|X2
 You're an extra lost in the scene

e--------------------/---------------------|
B-----8---8-----8---8/-----6---6-----6---6-|
G-----7---7-----7---7/-----5---5-----5---5-|
D-----9---9-----9---9/-----7---7-----7---7-|
A---7---7-----7---7--/---5---5-----5---5---|
E-7---------7--------/-5---------5---------|
 (vocalizing)

e----------------|
B-----10------10-|
G-----9-------9--|
D-----8-------8--|
A----------10----|
E-8-8----8-------|X4

e----------------|
B-----10------10-|
G-----9-------9--|
D-----8-------8--|
A----------10----|
E-8-8----8-------|X4
 You're a boxer in the ring/ with brass knuckles underneath

e-------------|
B-----6-----6-|
G-----5-----5-|
D-----4-----4-|
A---------6---|
E-4-4---4-----|X2
 You're the curses through my teeth

e----------------|
B-----10------10-|
G-----9-------9--|
D-----8-------8--|
A----------10----|
E-8-8----8-------|X2
 You're the laughter, you're the obscene

e--------------------/---------------------|
B-----8---8-----8---8/-----6---6-----6---6-|
G-----7---7-----7---7/-----5---5-----5---5-|
D-----9---9-----9---9/-----7---7-----7---7-|
A---7---7-----7---7--/---5---5-----5---5---|
E-7---------7--------/-5---------5---------|
 (vocalizing)

e----------------|
B-----10------10-|
G-----9-------9--|
D-----8-------8--|
A----------10----|
E-8-8----8-------|X4

e-----------------------------------------------------------------|
B-----------------------------------------------------------------|
G-----0-------0-------1-------1-------2-------2-------3-------3---|
D---2---2---2---2---2---2---2---2---2---2---2---2---2---2---2---2-|
A-3-------3-------3-------3-------3-------3-------3-------3-------|
E-----------------------------------------------------------------|
 You're a supplement, you're a salve/ you're a bandage, pull it off

e-------------|
B-----3-----3-|
G-----2-----2-|
D-----1-----1-|
A---------3---|
E-1-1---1-----|X2
 I think I love you, I think I'm mad

e-----------------------------------------------------------------|
B-----------------------------------------------------------------|
G-----0-------0-------1-------1-------2-------2-------3-------3---|
D---2---2---2---2---2---2---2---2---2---2---2---2---2---2---2---2-|
A-3-------3-------3-------3-------3-------3-------3-------3-------|
E-----------------------------------------------------------------|
 You're a cast signed, broken arm/ you're an actor out of work

e-------------|
B-----3-----3-|
G-----2-----2-|
D-----1-----1-|
A---------3---|
E-1-1---1-----|X2
 I think I love you, I think I'm mad

e-----------------------------------------------------------------|
B-----------------------------------------------------------------|
G-----0-------0-------1-------1-------2-------2-------3-------3---|
D---2---2---2---2---2---2---2---2---2---2---2---2---2---2---2---2-|
A-3-------3-------3-------3-------3-------3-------3-------3-------|
E-----------------------------------------------------------------|
 You're a boxer in the ring/ with brass knuckles underneath

e-------------|
B-----3-----3-|
G-----2-----2-|
D-----1-----1-|
A---------3---|
E-1-1---1-----|X2
 I think I love you, I think I'm mad

e----------------|
B-----10------10-|
G-----9-------9--|
D-----8-------8--|
A----------10----|
E-8-8----8-------|X4
 (vocalizing)

END.
Tap to rate this tab
# A B C D E F G H I J K L M N O P Q R S T U V W X Y Z