Song name
# A B C D E F G H I J K L M N O P Q R S T U V W X Y Z

St Vincent - What Me Worry Acoustic tab

I have seen multiple performances of this song live, and this is how she plays it.

(Intro)
e------------------------0-0-|
B-9--11-8-9--6-8-------2---2-|
G-8--10-7-8--5-7-----1-----1-|
D-10-12-9-10-7-9---2-------2-|
A----------------0---------0-|
E----------------------------|

e-----------------------------------------------------------------|
B-3---3---3---3---7---7---7---7---8---8---8---8---2---2---2---2---|
G-2---2---2---2---6---6---6---6---7---7---7---7---1---1---1---1---|
D-4---4---4---4---8---8---8---8---9---9---9---9---3---3---3---3---|
A---0---0---0---0---0---0---0---0---0---0---0---0---0---0---0---0-|
E-----------------------------------------------------------------|
 What me worry/ I never do/ I'm always amused/ and amusing you

e-----------------------------------------------------------------|
B-3---3---3---3---7---7---7---7---8---8---8---8---2---2---2---2---|
G-2---2---2---2---6---6---6---6---7---7---7---7---1---1---1---1---|
D-4---4---4---4---8---8---8---8---9---9---9---9---3---3---3---3---|
A---0---0---0---0---0---0---0---0---0---0---0---0---0---0---0---0-|
E-----------------------------------------------------------------|
 Sans le fear of impending doom/ Life is like banquet food/ pleasure to peruse

e---------------------------------|
B-1---1---1---1---1---1---1---1---|
G-0---0---0---0---0---0---0---0---|
D-2---2---2---2---1---1---1---1---|
A---0---0---0---0---0---0---0---0-|
E---------------------------------|
 Do I amuse you, dear/ Would you think me queer if while

e---------2---------1---------0-|
B-------4---------3---------1---|
G-----3---------1---------0-----|
D---2---------1---------2-------|
A-4---------3---------0---------|
E-------------------------------|
 Standing beside you/ I opted instead to

e---4-----4---3-----3---2-----2---1-----1---------0-0-|
B---6-----6---5-----5---4-----4---3-----3-------0---0-|
G---5-----5---4-----4---3-----3---2-----2-----1-----1-|
D---4-----4---3-----3---2-----2---1-----1---2-------2-|
A---6-----6---5-----5---4-----4---3-----3-0---------0-|
E-4---4-4---3---3-3---2---2-2---1---1-1---------------|
 Disappear/ Disappear...

e-----------------------------------------------------------------|
B-3---3---3---3---7---7---7---7---8---8---8---8---2---2---2---2---|
G-2---2---2---2---6---6---6---6---7---7---7---7---1---1---1---1---|
D-4---4---4---4---8---8---8---8---9---9---9---9---3---3---3---3---|
A---0---0---0---0---0---0---0---0---0---0---0---0---0---0---0---0-|
E-----------------------------------------------------------------|
 In no hurry, I'll sing my tune/ Oh, my sky's the hue/ of a ruddy bruise

e-----------------------------------------------------------------|
B-3---3---3---3---7---7---7---7---8---8---8---8---2---2---2---2---|
G-2---2---2---2---6---6---6---6---7---7---7---7---1---1---1---1---|
D-4---4---4---4---8---8---8---8---9---9---9---9---3---3---3---3---|
A---0---0---0---0---0---0---0---0---0---0---0---0---0---0---0---0-|
E-----------------------------------------------------------------|
 And in my finest threads couture/ I'll call up my favorite muse/ for a drink half full or two

e---------------------------------|
B-1---1---1---1---1---1---1---1---|
G-0---0---0---0---0---0---0---0---|
D-2---2---2---2---1---1---1---1---|
A---0---0---0---0---0---0---0---0-|
E---------------------------------|
 Do I abuse you, dear/ You have had it to here

e---------2---------1---------0-|
B-------4---------3---------1---|
G-----3---------1---------0-----|
D---2---------1---------2-------|
A-4---------3---------0---------|
E-------------------------------|
 You say love's just a bloodmatch/ to see who endures lash

e---4-----4---3-----3---2-----2---1-----1---------0-0-|
B---6-----6---5-----5---4-----4---3-----3-------0---0-|
G---5-----5---4-----4---3-----3---2-----2-----1-----1-|
D---4-----4---3-----3---2-----2---1-----1---2-------2-|
A---6-----6---5-----5---4-----4---3-----3-0---------0-|
E-4---4-4---3---3-3---2---2-2---1---1-1---------------|
 after lash/ With panache...

e---------------------------------------------------------------|
B-2---2---2---2---2---2---2---2---4---4---3---3---2---2---2---2-|
G-1---1---1---1---2---2---2---2---4---4---3---3---2---2---2---2-|
D-2---2---2---2---4---4---4---4---6---6---5---5---4---4---4---4-|
A---0---0---0---0---0---0---0---0---0---0---0---0---0---0---0---|
E---------------------------------------------------------------|
 In the spring, I dust off my lute/ stuff my suitcase full of blues

e-----------------------------------------------------------------|
B-3---3---3---3---5---5---5---5---6---6---6---6---8---8---8---8---|
G-2---2---2---2---4---4---4---4---5---5---5---5---7---7---7---7---|
D-4---4---4---4---6---6---6---6---7---7---7---7---9---9---9---9---|
A---0---0---0---0---0---0---0---0---0---0---0---0---0---0---0---0-|
E-----------------------------------------------------------------|
 And I'll stir the dust underneath the thrust of my clicking heels

e-----------------------------------------------------------------|
B-3---3---3---3---7---7---7---7---8---8---8---8---2---2---2---2---|
G-2---2---2---2---6---6---6---6---7---7---7---7---1---1---1---1---|
D-4---4---4---4---8---8---8---8---9---9---9---9---3---3---3---3---|
A---0---0---0---0---0---0---0---0---0---0---0---0---0---0---0---0-|
E-----------------------------------------------------------------|
 C'est la vie...

e-----------------------------------------------------------------|
B-3---3---3---3---7---7---7---7---8---8---8---8---2---2---2---2---|
G-2---2---2---2---6---6---6---6---7---7---7---7---1---1---1---1---|
D-4---4---4---4---8---8---8---8---9---9---9---9---3---3---3---3---|
A---0---0---0---0---0---0---0---0---0---0---0---0---0---0---0---0-|
E-----------------------------------------------------------------|
 What me worry/ I never do/ Life is one charming ruse/ for us lucky few

e---------------------------------|
B-1---1---1---1---1---1---1---1---|
G-0---0---0---0---0---0---0---0---|
D-2---2---2---2---1---1---1---1---|
A---0---0---0---0---0---0---0---0-|
E---------------------------------|
 Did I fool you, dear/ The time is coming near when I

e---------2---------1---------0-|
B-------4---------3---------1---|
G-----3---------1---------0-----|
D---2---------1---------2-------|
A-4---------3---------0---------|
E-------------------------------|
 Give you my hand/ and I'll say it's been grand, but

e---4-----4---3-----3---2-----2---1-----1-----------|
B---6-----6---5-----5---4-----4---3-----3---------0-|
G---5-----5---4-----4---3-----3---2-----2-------1---|
D---4-----4---3-----3---2-----2---1-----1-----2-----|
A---6-----6---5-----5---4-----4---3-----3---0-------|
E-4---4-4---3---3-3---2---2-2---1---1-1---0---------|
 I'm out of here/ I'm out of here...

(End the song with an octave harmonic on the open e string).
Tap to rate this tab
 
# A B C D E F G H I J K L M N O P Q R S T U V W X Y Z