Song name
# A B C D E F G H I J K L M N O P Q R S T U V W X Y Z

St Vincent - I Prefer Your Love tab

-------------------------------------------------------------------------------
		        I PREFER YOUR LOVE - St. Vincent
-------------------------------------------------------------------------------
Tabbed by: Klingensmith
Album: ST. VINCENT (2014)

Tuning: Standard

    I.....I prefer your love......to Je--------sus
e|--0-------------------0------------0----------0----------------------------------|
B|--0-------------------9------------0----------0----------------------------------|
G|--8-------------------9------------6----------1----------------------------------|
D|--9-------------------7------------7----------2----------------------------------|
A|--9-------------------7------------7----------2----------------------------------|
E|--7-------------------0------------5----------0----------------------------------|

    Little baby on your knees, cos the world has got...you...down
e|--0-----------0--------------4-----------------2-----------0---------------------|
B|--0-----------0--------------4-----------------2-----------0---------------------|
G|--8-----------6--------------4-----------------2-----------1---------------------|
D|--9-----------7--------------6-----------------4-----------2---------------------|
A|--9-----------7--------------6-----------------4-----------2---------------------|
E|--7-----------5--------------4-----------------2-----------0---------------------|

    Name-tagged...   tired walking...   as my head...   moves from...   west.
e|--2----------------1------------------4---------------6---------------4----------|
B|--2----------------2------------------4---------------7---------------6----------|
G|--2----------------3------------------4---------------8---------------6----------|
D|--4----------------3------------------6---------------8---------------6----------|   x2
A|--4----------------1------------------6---------------6---------------4----------|
E|--2----------------1------------------4---------------6---------------4----------|

             But all good in me is because of you
e|--0----------------4----------------------------------0--------------------------|
B|--0----------------5----------------------------------0--------------------------|
G|--6----------------6----------------------------------6--------------------------|
D|--7----------------6----------------------------------7--------------------------|
A|--7----------------4----------------------------------7--------------------------|
E|--5----------------4----------------------------------5--------------------------|

Repeat as necessary. Instrumental section is the same chords as the verse.

I'm sure this isn't the way Annie would play it but it sounds damn good when I'm strumming
along on my acoustic to have those high Bs and Es ringing out.

Hope this helps! The other chords that are up are a bit off, missing minors often,
so I figured anybody that's looking for this might as well get something a bit more accurate.

thanks
Tap to rate this tab
# A B C D E F G H I J K L M N O P Q R S T U V W X Y Z