Song name
# A B C D E F G H I J K L M N O P Q R S T U V W X Y Z

St Vincent - Every Tear Disappears tab

-------------------------------------------------------------------------------
			   Every Tear Disappears - St. Vincent
-------------------------------------------------------------------------------

Tuning: Standard

Main Riff
e|------------------------------------------|
B|------------------------------------------|
G|------------------------------------------| 
D|------------------------------------------|
A|-----12-0-(x4)-----10-0-(x2)----7-0-(x2)--|
E|--5/------------5/-----------3/-----------|

Riff Two
e|-------------------------------------|
B|-------------------------------------|
G|------4-/7-6---4---/4----------------|
D|----7--------7---5----5-5/7-4-2------|
A|--7----------------------------------|
E|-------------------------------------|

Riff Three
e|-------------------------------------------------------|
B|-------------------------------------------------------|
G|-------------------------------------------------------|
D|----3-----3-----5-----5-----3-----3-----5-----5--------|
A|-------------------------------------------------------|
E|--1---1-1---1-3---3-3---3-1---1-1---1-3---3-3---3-----|

Structure:
Main Riff x3
Riff Two 
Main Riff x2
Riff Two
Main Riff x2
Fmaj, Gmaj, Fmaj, Emaj.
Main Riff x2
Riff Three
Main Riff x2
Riff Two until the end


************************************

| /   slide up
| \   slide down
| h   hammer-on
| p   pull-off
| ~   vibrato
| +   harmonic
| x   Mute note
| b   Bend
| pb  Pre-bend
| br  Bend release
| pbr Pre-bend release
| brb Bend release bend

************************************
Tap to rate this tab
# A B C D E F G H I J K L M N O P Q R S T U V W X Y Z