Song name
# A B C D E F G H I J K L M N O P Q R S T U V W X Y Z

St12 - Saat Terakhir tab

ST12 - Saat Terakhir (intro & solo)



Key:

^  - bend
^^ - full bend
h  - hammer on
p  - pull off
r  - release bend
/  - slide down
\  - slide up
~  - vibrato
() - finger tap



(INTRO:)


    D             A           Bm              F#m     G            D
e|---------------------------------------------------------------------------|
B|-------------------------------------------------6-6h7-6-4~---6-6h7-6------|
G|--7~---9h11p9-7-9~-------7--9/11-9-7---7-7h9-7------------------------7~---|
D|---------------------7-9---------------------------------------------------|
A|---------------------------------------------------------------------------|
E|---------------------------------------------------------------------------|


             A
e|---------------------------------|
B|---------------------------------|
G|--9h11p9-7-9~---7h9p7-6~---------|
D|---------------------------------|
A|---------------------------------|
E|---------------------------------|



(SOLO:)


    G                 Bm                    Em                        F#
e|-------------------------------------------------------------------------|
B|--8~--7~----------------------------------5/10~---8-8-8--7-7----7--------|
G|----------9-9--7--6-6h7-6-4~---4-4-4--6-7---------------------9---7-6~---|
D|-------------------------------------------------------------------------|
A|-------------------------------------------------------------------------|
E|-------------------------------------------------------------------------|


                         Bm                    G                       Em
e|--------------------------------------------------------------------------|
B|-----------14^-12---------------------------------------------------------|
G|--7/9-7~----------14--14/16--14h16p14-12~---9h11-9h11p9--7-6--------------|
D|-------------------------------------------------------------9-7-9p7-5~---|
A|--------------------------------------------------------------------------|
E|--------------------------------------------------------------------------|


        A
e|--------------------------------------------------------------------------|
B|---------------------------------------------------------------10/12-10---|
G|--------------------------------------------9-----------9/11-9------------|
D|--5-5-7~--7-7-9~--9-9-11~--11-11-12~--12-12---12-11-9-7-------------------|
A|--------------------------------------------------------------------------|
E|--------------------------------------------------------------------------|


                             G       A
e|--------------------12h14-15~-----17^^r-17~---------|
B|--------------12h14------------15-------------------|
G|--------12h14---------------------------------------|
D|--12h14---------------------------------------------|
A|----------------------------------------------------|
E|----------------------------------------------------|


Guitar Tabs by rizalwahap
Tap to rate this tab
# A B C D E F G H I J K L M N O P Q R S T U V W X Y Z