Guitaretab - guitar tabs
Song name
# A B C D E F G H I J K L M N O P Q R S T U V W X Y Z

Staatspunkrott - Choleriker tab

Artist: Staatspunkrott
Title: Choleriker
Album: Größenwahn - Jetzt!
Tabbed by: Kurt Lachmann

b = bend



Chorus
e|---------------------------|
H|---------------------------|
G|-77777---------------------| 
D|-7777777777999995555577777-|
A|-5555577777999995555577777-|
E|------55555777773333355555-|

Strophe
e|--------------------|
H|--------------------|
G|-9977------7799-----| 
D|-99779977997799-x-x-|
A|-77559977995577-x-x-|
E|-----775577-----x-x-|

Bridge
e|----------------------|
H|----------------------|
G|-----------7777799999-| 
D|-77777999997777799999-|
A|-77777999995555577777-|
E|-5555577777-----------|
[ Tab from: http://www.guitaretab.com/s/staatspunkrott/89343.html ]
Solo
e|---------------------------|  |------------------------------------|
H|-12-10-12-10-12--1010-10-10|  |-12-10-12-10-12-10-12-10-12b--10----|
G|---------------------------|x2|----------------------------------9-|
D|---------------------------|  |------------------------------------|
A|---------------------------|  |------------------------------------|
E|---------------------------|  |------------------------------------|



Order:

Chorus (x2)
Verse (x4)
Bridge 
Chorus (x2) 
Solo (+ 2nd guitar plays Chorus)
Verse (x4)
Bridge
Chorus (x2)
Solo (x2) (2nd guitar plays Chorus (x2))

end on
e|-------------------|
H|-------------------|
G|----------7--xx--7-|
D|-7--7--7--7--xx--7-|
A|-7--7--7--5--xx--5-|
E|-5--5--5-----xx----|



Related for Choleriker tab
Advertisement will be closed in 10 seconds