Song name
# A B C D E F G H I J K L M N O P Q R S T U V W X Y Z

Stabbing Westward - Save Yourself tab

This is an awesome song by an awesome artist. Not many people know the song, but the use
guitar, drums, and synthesized effects is awesome. There was already a TAB for this
on here, but I don't think it was quite right. This is my first TAB, so please rate and 
Thanks, and have fun playing it.

(Tune your guitar down one half step so that the strings are Eb, Ab, Db, Gb, Bb, and eb.)


INTRO:

   W (whole rest)
eb|----|
Bb|----|
Gb|----|  x12
Db|----|
Ab|----|
Eb|----|


   E   S S S S E   S S S S E   E
eb|----x-x-x-x-----x-x-x-x---------|
Bb|----x-x-x-x-----x-x-x-x---------|
Gb|----x-x-x-x-----x-x-x-x---------|  x8
Db|4---x-x-x-x-4---x-x-x-x-2---7---|
Ab|4---x-x-x-x-4---x-x-x-x-2---7---|
Eb|2---x-x-x-x-2---x-x-x-x-0---5---|


VERSE 1:

   W (whole rest)
eb|----|
Bb|----|
Gb|----|  x8
Db|----|
Ab|----|
Eb|----|


CHORUS:

   E E E E E E E E  E E E E E E E E
eb|----------------|----------------|
Bb|----------------|----------------|
Gb|7-7-7-7-7-7-7-7-|9-9-9-9-9-9-9-9-|
Db|7-7-7-7-7-7-7-7-|9-9-9-9-9-9-9-9-|
Ab|5-5-5-5-5-5-5-5-|7-7-7-7-7-7-7-7-|
Eb|----------------|----------------|


   E   S S S S E   S S S S E   E
eb|----x-x-x-x-----x-x-x-x---------|
Bb|----x-x-x-x-----x-x-x-x---------|
Gb|----x-x-x-x-----x-x-x-x---------|  x2
Db|4---x-x-x-x-4---x-x-x-x-2---7---|
Ab|4---x-x-x-x-4---x-x-x-x-2---7---|
Eb|2---x-x-x-x-2---x-x-x-x-0---5---|


   E E E E E E E E  E E E E E E E E
eb|----------------|----------------|
Bb|----------------|----------------|
Gb|7-7-7-7-7-7-7-7-|9-9-9-9-9-9-9-9-|
Db|7-7-7-7-7-7-7-7-|9-9-9-9-9-9-9-9-|
Ab|5-5-5-5-5-5-5-5-|7-7-7-7-7-7-7-7-|
Eb|----------------|----------------|


   E   S S S S E   S S S S E   E
eb|----x-x-x-x-----x-x-x-x---------|
Bb|----x-x-x-x-----x-x-x-x---------|
Gb|----x-x-x-x-----x-x-x-x---------|  x2
Db|4---x-x-x-x-4---x-x-x-x-2---7---|
Ab|4---x-x-x-x-4---x-x-x-x-2---7---|
Eb|2---x-x-x-x-2---x-x-x-x-0---5---|


   E
eb|--------|
Bb|--------|
Gb|--------|
Db|4-------|
Ab|4-------|
Eb|2-------|


VERSE 2:

   W (whole rest)
eb|----|
Bb|----|
Gb|----|  x3
Db|----|
Ab|----|
Eb|----|


   E   S S S S E   S S S S E   E
eb|----x-x-x-x-----x-x-x-x---------|
Bb|----x-x-x-x-----x-x-x-x---------|
Gb|----x-x-x-x-----x-x-x-x---------|  x4
Db|4---x-x-x-x-4---x-x-x-x-2---7---|
Ab|4---x-x-x-x-4---x-x-x-x-2---7---|
Eb|2---x-x-x-x-2---x-x-x-x-0---5---|


   W (whole rest)
eb|----|
Bb|----|
Gb|----|  x8
Db|----|
Ab|----|
Eb|----|


CHORUS:

   E E E E E E E E  E E E E E E E E
eb|----------------|----------------|
Bb|----------------|----------------|
Gb|7-7-7-7-7-7-7-7-|9-9-9-9-9-9-9-9-|
Db|7-7-7-7-7-7-7-7-|9-9-9-9-9-9-9-9-|
Ab|5-5-5-5-5-5-5-5-|7-7-7-7-7-7-7-7-|
Eb|----------------|----------------|


   E   S S S S E   S S S S E   E
eb|----x-x-x-x-----x-x-x-x---------|
Bb|----x-x-x-x-----x-x-x-x---------|
Gb|----x-x-x-x-----x-x-x-x---------|  x2
Db|4---x-x-x-x-4---x-x-x-x-2---7---|
Ab|4---x-x-x-x-4---x-x-x-x-2---7---|
Eb|2---x-x-x-x-2---x-x-x-x-0---5---|


   E E E E E E E E  E E E E E E E E
eb|----------------|----------------|
Bb|----------------|----------------|
Gb|7-7-7-7-7-7-7-7-|9-9-9-9-9-9-9-9-|
Db|7-7-7-7-7-7-7-7-|9-9-9-9-9-9-9-9-|
Ab|5-5-5-5-5-5-5-5-|7-7-7-7-7-7-7-7-|
Eb|----------------|----------------|


   E   S S S S E   S S S S E   E
eb|----x-x-x-x-----x-x-x-x---------|
Bb|----x-x-x-x-----x-x-x-x---------|
Gb|----x-x-x-x-----x-x-x-x---------|  x2
Db|4---x-x-x-x-4---x-x-x-x-2---7---|
Ab|4---x-x-x-x-4---x-x-x-x-2---7---|
Eb|2---x-x-x-x-2---x-x-x-x-0---5---|


BRIDGE:

   EEEEEEEE EEEEEEEE EEEEEEEE EEEEEEEE
eb|--------|--------|--------|--------|
Bb|--------|--------|--------|--------|
Gb|--------|--------|--------|--------|
Db|--------|--------|--------|--------|
Ab|66666666|--------|--------|--------|
Eb|--------|77777777|66666666|55555555|

                              ________   ________
                             |1,2,3,4   |5
   EEEEEEEE EEEEEEEE EEEEEEEE EEEEEEEE   E
eb|--------|--------|--------|--------| |--------|
Bb|--------|--------|--------|--------| |--------|
Gb|--------|--------|--------|--------| |--------|
Db|44444444|--------|--------|--------| |--------|
Ab|66666666|77777777|44444444|55555555| |4-------|
Eb|--------|77777777|66666666|55555555| |6-------|


VERSE 3:


   W (whole rest)
eb|----|
Bb|----|
Gb|----|  x8
Db|----|
Ab|----|
Eb|----|


CHORUS:

   E E E E E E E E  E E E E E E E E
eb|----------------|----------------|
Bb|----------------|----------------|
Gb|7-7-7-7-7-7-7-7-|9-9-9-9-9-9-9-9-|
Db|7-7-7-7-7-7-7-7-|9-9-9-9-9-9-9-9-|
Ab|5-5-5-5-5-5-5-5-|7-7-7-7-7-7-7-7-|
Eb|----------------|----------------|


   E   S S S S E   S S S S E   E
eb|----x-x-x-x-----x-x-x-x---------|
Bb|----x-x-x-x-----x-x-x-x---------|
Gb|----x-x-x-x-----x-x-x-x---------|  x2
Db|4---x-x-x-x-4---x-x-x-x-2---7---|
Ab|4---x-x-x-x-4---x-x-x-x-2---7---|
Eb|2---x-x-x-x-2---x-x-x-x-0---5---|


   E E E E E E E E  E E E E E E E E
eb|----------------|----------------|
Bb|----------------|----------------|
Gb|7-7-7-7-7-7-7-7-|9-9-9-9-9-9-9-9-|
Db|7-7-7-7-7-7-7-7-|9-9-9-9-9-9-9-9-|
Ab|5-5-5-5-5-5-5-5-|7-7-7-7-7-7-7-7-|
Eb|----------------|----------------|


   E   S S S S E   S S S S E   E
eb|----x-x-x-x-----x-x-x-x---------|
Bb|----x-x-x-x-----x-x-x-x---------|
Gb|----x-x-x-x-----x-x-x-x---------|  x2
Db|4---x-x-x-x-4---x-x-x-x-2---7---|
Ab|4---x-x-x-x-4---x-x-x-x-2---7---|
Eb|2---x-x-x-x-2---x-x-x-x-0---5---|


FINAL CHORUS:

   E E E E E E E E  E E E E E E E E
eb|----------------|----------------|
Bb|----------------|----------------|
Gb|7-7-7-7-7-7-7-7-|9-9-9-9-9-9-9-9-|
Db|7-7-7-7-7-7-7-7-|9-9-9-9-9-9-9-9-|
Ab|5-5-5-5-5-5-5-5-|7-7-7-7-7-7-7-7-|
Eb|----------------|----------------|


   E   S S S S E   S S S S E   E
eb|----x-x-x-x-----x-x-x-x---------|
Bb|----x-x-x-x-----x-x-x-x---------|
Gb|----x-x-x-x-----x-x-x-x---------|  x2
Db|4---x-x-x-x-4---x-x-x-x-2---7---|
Ab|4---x-x-x-x-4---x-x-x-x-2---7---|
Eb|2---x-x-x-x-2---x-x-x-x-0---5---|


   E E E E E E E E  E E E E E E E E
eb|----------------|----------------|
Bb|----------------|----------------|
Gb|7-7-7-7-7-7-7-7-|9-9-9-9-9-9-9-9-|
Db|7-7-7-7-7-7-7-7-|9-9-9-9-9-9-9-9-|
Ab|5-5-5-5-5-5-5-5-|7-7-7-7-7-7-7-7-|
Eb|----------------|----------------|


   E   S S S S E   S S S S E   E
eb|----x-x-x-x-----x-x-x-x---------|
Bb|----x-x-x-x-----x-x-x-x---------|
Gb|----x-x-x-x-----x-x-x-x---------|  x4
Db|4---x-x-x-x-4---x-x-x-x-2---7---|
Ab|4---x-x-x-x-4---x-x-x-x-2---7---|
Eb|2---x-x-x-x-2---x-x-x-x-0---5---|


   E
eb|--------|
Bb|--------|
Gb|--------|
Db|4-------|
Ab|4-------|
Eb|2-------|

>>LYRICS<<
(courtesy of www.stlyrics.com)

VERSE 1:
I know your life is empty
And you hate to face this world alone
So you're searching for an angel
Someone who can make you whole

CHORUS:
I can not save you
I can't even save myself
So just save yourself

VERSE 2:
I know that you've been damaged
Your soul has suffered such abuse
But I am not your savior
I am just as f***ed as you
(I am just as f***ed as you)

CHORUS:
I can not save you
I can't even save myself
So just save yourself

BRIDGE:
Please don't take pity on me
Please don't take pity on me
Please don't take pity on me
Please don't take pity on me

VERSE 3:
My life has been a nightmare
My soul is fractured to the bone
And if I must be lonely, I think I'd rather be alone
(I think I'd rather be alone)

CHORUS:
You can not save me
You can't even save yourself

FINAL CHORUS:
I can not save you
I can't even save myself
Save yourself
So just save yourself
Tap to rate this tab
# A B C D E F G H I J K L M N O P Q R S T U V W X Y Z