Song name
# A B C D E F G H I J K L M N O P Q R S T U V W X Y Z

Stabbing Westward - Goodbye tab

Goodbye
Stabbing Westward
CD: Darkest Days

Tabbed by Neil Crane

Guitar is tuned down half a step and is drop D.

During the words I will use the bass notes to denote the timing for the riffs.


Riff 1
 F#      A    C# D  these represent the bass notes
-------------------------------|
-------------------------------|
-------------------0-----------|
-----5-------5-------0---------|  last 2 notes lightly
---5-------5-------------------|
-5-----5-8-----0-1-------------|

Riff 2
 E F#      A    C# D these represent the bass notes
-------------------------------|
-------------------------------|
---------------------0---------|
-------5-------5-------0-------|  last 2 notes lightly
-----5-------5-----------------|
-3-5-----5-8-----0-1-----------|


Intro - Riff 1 (4X)

F#   A             C# D
  So this is where I say goodbye
F#        A        C# D
  This is where my story ends
F#               A              C# D
  And if there's one thing that I've learned from life
F#              A              C# D
  It's that it gets you in the end
F# A        C# D
       So goodbye my friend
F# A     C# D
       Goodbye
E F# A   C# D  (riff 2)
       Goodbye my friend
F# A     C# D
       Goodbye
Tap to rate this tab
# A B C D E F G H I J K L M N O P Q R S T U V W X Y Z