Song name
# A B C D E F G H I J K L M N O P Q R S T U V W X Y Z

Stabbing Westward - When Im Dead tab

Tuning
D
A
D
G
D
e

Intro with the screaming  play twice
/-------------------------------------------------------------------------------
/-------------------------------------------------------------------------------
/-------------------------------------------------------------------------------
/--1-1-1-1-1-1---1-1-1-1-3-2-1--------------------------------------------------
/--1-1-1-1-1-1---1-1-1-1-3-2-1--------------------------------------------------
/--1-1-1-1-1-1---1-1-1-1-3-2-1--------------------------------------------------

Play 4 Times
/-------------------------------------------------------------------------------
/-------------------------------------------------------------------------------
/--5-5-5-5-7-7-7-7--------------------------5-5-5-5-7-7-7-7---------------------
/--5-5-5-5-7-7-7-7---3-3-3---7-7-7---0-0----5-5-5-5-7-7-7-7---3-3-3-7-7-7--10-10
/--3-3-3-3-5-5-5-5---3-3-3---7-7-7---0-0----3-3-3-3-5-5-5-5---3-3-3-7-7-7--10-10
/--------------------3-3-3---7-7-7---0-0----------------------3-3-3-7-7-7--10-10
                 
Play 3 times
/-------------------------------------------------------------------------------
/-------------------------------------------------------------------------------
/-------------------------------------------------------------------------------
/-------------------------------------------------------------------------------
/-------------------------------------------------------------------------------
/--1-2-1-2-1-2-1-2-1-2-2-2-2-2-2-1-2-2-2-2-2-1----------------------------------

/-------------------------------------------------------------------------------
/-------------------------------------------------------------------------------
/-------------------------------------------------------------------------------
/--2-2-2-2-2-1-2-2-2-2-2-1-5-5-5-5-5-4-2-2-2-2-2-1------------------------------
/--2-2-2-2-2-1-2-2-2-2-2-1-5-5-5-5-5-4-2-2-2-2-2-1------------------------------
/--2-2-2-2-2-1-2-2-2-2-2-1-5-5-5-5-5-4-2-2-2-2-2-1------------------------------

Play 2 Times
/-------------------------------------------------------------------------------
/-------------------------------------------------------------------------------
/-------------------------------------------------------------------------------
/--1-1-1-1-1-1---1-1-1-1-3-2-1--------------------------------------------------
/--1-1-1-1-1-1---1-1-1-1-3-2-1--------------------------------------------------
/--1-1-1-1-1-1---1-1-1-1-3-2-1--------------------------------------------------


muted part  I cant remember how many times to play this so listen to the song
/-------------------------------------------------------------------------------
/-------------------------------------------------------------------------------
/-------------------------------------------------------------------------------
/--2-x-x-2-x-x-2-x-2-x-x-2-x-x-2-1----------------------------------------------
/--2-x-x-2-x-x-2-x-2-x-x-2-x-x-2-1----------------------------------------------
/--2-x-x-2-x-x-2-x-2-x-x-2-x-x-2-1----------------------------------------------

Repeat song again without the muted part
_______________
my email RDkiller19@aol.com
Rory Dillon
Tap to rate this tab
# A B C D E F G H I J K L M N O P Q R S T U V W X Y Z