Song name
# A B C D E F G H I J K L M N O P Q R S T U V W X Y Z

Stabbing Westward - Desperate Now tab

Help us improve GuitareTab! Take a short survey!
Stabbing Westward - Desperate Now
Submitted By: Greg Ramirez
EMail: Gutterball438@aol.com

Tuning: Drop D (D A D G B e)

Verse:
--------------------------|
-11------11----8------8---|
-10---10----10-7--------7-|
-9-------------5----------|
-9-------------5----------|
-9-------------5----------|
chorus:
-----------------------------------|
1111111111111111-8-8-8-8-8-8-8-8-8-|
1010101010101010-7-7-7-7-7-7-7-7-7-|
-9-9-9-9-9-9-9-9-5-5-5-5-5-5-5-5-5-|
-9-9-9-9-9-9-9-9-5-5-5-5-5-5-5-5-5-|
-9-9-9-9-9-9-9-9-5-5-5-5-5-5-5-5-5-|
Break:
------------------------------------------------------------------|
-13-12----13-12----13-12----13-12-15-14----15-14----15-14----15-14|
-------11-------11-------11-------------12-------12-------12------|
------------------------------------------------------------------|
------------------------------------------------------------------|
------------------------------------------------------------------|

---------------------------------------|
-17-15----17-15----17-15----17-15------|
-------14-------14-------14-------9/11-|
---------------------------------------|
---------------------------------------|
---------------------------------------|

Questions corrections email greg at Gutterball438@aol.com
Related for Desperate Now tab