Song name
# A B C D E F G H I J K L M N O P Q R S T U V W X Y Z

Stabbing Westward - So Wrong tab

So Wrong by Stabbing Westward

Tabbed by Dave Bloom

mizar_alcor@yahoo.com

A simple song to play, but I had a little trouble figuring
it out.

Standard Tuning

E
A
D
G
B
e


The Main Riff

  ----------------------------|
  ----------------------------|
  ----------------------------|
  -3-2-2-2-2-2-2--------------|
  -3-2-2-2-2-2-2--------------|
  -1-0-0-0-0-0-0--------------|


The chorus follows that pattern...
-------------------------------------------|
-------------------------------------------|
-------------------------------------------|
-2-2----5-5----7-7-------2-2---5-5---4-4---|
-2-2----5-5----7-7-------2-2---5-5---4-4---|
-0-0----3-3----5-5-------0-0---3-3---2-2---|

Other chords used...


   | E | G | F#| A |
   |---|---|---|---|
   |---|---|---|---|
   |-1-|-4-|-3-|-6-|
   |-2-|-5-|-4-|-7-|
   |-2-|-5-|-4-|-7-|
   |-0-|-3-|-2-|-5-|

Words...


  Wasted thoughts of you

  Desperate prayers to you

  Give me back my mind

  I'm empty inside


  And it's so wrong


  That I need you


  It's so wrong that I need you


  It's so wrong that I need abuse


  And it's so wrong that I need you


  So wrong that i'm scared i'd die alone

  What have I become

  Everything's undone

  A candle burns here in your honor

  My soul a shrine I built for you

  There's nothing left inside me

  Nothing left inside but you

  And it's so wrong that I need you


  So wrong that I need abuse


  It's so wrong that I need you


  And it's so wrong that i'm scared i'd die alone

  Can't seem to pretend

  This night has to end

  I can't fill this hole

  You are all I know

  And it's so wrong that I need you


  It's so wrong that I need abuse


  And it's so wrong that I need you


  It's so wrong that I need abuse


  And it's so wrong that I need you


  So wrong that I need you


  So wrong that I need you


  So wrong that i'm scared i'd die alone
Tap to rate this tab
 
# A B C D E F G H I J K L M N O P Q R S T U V W X Y Z