Song name
# A B C D E F G H I J K L M N O P Q R S T U V W X Y Z

Stabilo Boss - Paperbou tab

This is my first tab and the end is a little bit tricky - Im almost certain this is
correct but I'll come back and fix it if it's not. Boast any suggestions or comments
if you wish. I hope I served you well Rouzzel !

E|-s5-5-------0----------<12>------x3----------------------|
A|------0--h2------------<12>------------------------------|
D|-----------------------<12>------------------------------|
G|---------------------------------------------------------|
B|---------------------------------------------------------|
e|---------------------------------------------------------|

E|--1-------------------------------------------------------|
A|---3------------------------------------------------------|
D|----3--2--------------------------------------------------|
G|-----2-----------------0----------------------------------|
B|--------------1--0h1p0------------------------------------|
e|----------------------------------------------------------|

This song is basically played with two guitars - the lead is playing what is above, and 
other is bohnsoning the chords F, Am, F, Am, F,AM and throw in the G too.
peath ooot
Tap to rate this tab
# A B C D E F G H I J K L M N O P Q R S T U V W X Y Z