Guitaretab - guitar tabs
Song name
# A B C D E F G H I J K L M N O P Q R S T U V W X Y Z

Stabilo Boss - Flawed Design tab

This is my first tab EVER, so...forgive me if it is imperfect.

CHORDS

  Em              Am                C               G
|--0--|         |--0--|          |--0--|         |--3--|
|--0--|         |--1--|          |--1--|         |--0--|
|--0--|         |--2--|          |--2--|         |--0--|
|--2--|         |--2--|          |--0--|         |--0--|
|--2--|         |--0--|          |--3--|         |--2--|
|--0--|         |--x--|          |--x--|         |--3--|


Verse 1 (played four times):
|------------------|------------------|------------------|--------3---------|
|------------------|------------------|------------------|------1---1-0-----|
|----2-4---2-4---2-|--0-0-2-4-0-2-4-0-|----2-4---2-4---2-|--2-4---------2-0-|
|--2-----2-----2---|------------------|--4-----4-----4---|------------------|
|------------------|------------------|------------------|------------------|
|------------------|------------------|------------------|------------------|

Pre-chorus ďAnd I will turn off, and I will shut-downÖĒ can be played two ways.
 You can play the verse riff once and then:

|------------------|------------------|------------------|--------3-|
|------------------|------------------|------------------|------1---|
|----2-4---2-4---2-|--0-0-2-4-0-2-4-0-|----2-4---2-4---2-|--2-4-----|
|--2-----2-----2---|------------------|--4-----4-----4---|----------|
|------------------|------------------|------------------|----------|

Or you can play the chords.

Em
And I will turn off

G
And I will shut down

D
Burying the voices of my

Am
Conscience hitting ground

Em
And I will turn off

G
And I will shut down

D
The chemicals are restless

Am
In my head


Play this just before verse 2

|------------------|-----------------|
|------------------|-----------------|
|----2-4---2-4---2-|--0-0-2-4-0-2----|
|--2-----2-----2---|--------------4--|
|------------------|-----------------|


Verse 2:

Play verse 1 three times and then
[ Tab from: http://www.guitaretab.com/s/stabilo-boss/69680.html ]
|------------------|------------------|------------------|--------3-|
|------------------|------------------|------------------|------1---|
|----2-4---2-4---2-|--0-0-2-4-0-2-4-0-|----2-4---2-4---2-|--2-4-----|
|--2-----2-----2---|------------------|--4-----4-----4---|----------|
|------------------|------------------|------------------|----------|

Chorus:

Cuz I

Em
Lie and I donít even

G
Want to but I seem to

D
Need to all the

Am
Time

Yeah I

Em
Lie and I donít even

G
Know it. Maybe this is

D
All a part of

Am
My

Flawed design


Bridge:

C
And how can you say those things

Am
Why canít you just believe?

C
And how can you say those things

Am
And keep a straight face?

C
And how can you say those things

Am
Why canít we just believe?

C
And how can you say those things

Am
And keep a straight face?

Secondary Bridge is almost the same as the Pre-Chorus, except the verse riff changes a bit.

You play this riff once:
|------------------|------------------|------------------|--------3---------|
|------------------|------------------|------------------|------1-----0-----|
|----2-4---2-4---2-|--0-0-2-4-0-2-4-0-|----2-4---2-4---2-|--2-4---------2-0-|
|--2-----2-----2---|------------------|--4-----4-----4---|------------------|
|------------------|------------------|------------------|------------------|
|------------------|------------------|------------------|------------------|

And then this once
|------------------|------------------|------------------|--------3-|
|------------------|------------------|------------------|------1---|
|----2-4---2-4---2-|--0-0-2-4-0-2-4-0-|----2-4---2-4---2-|--2-4-----|
|--2-----2-----2---|------------------|--4-----4-----4---|----------|
|------------------|------------------|------------------|----------|
|------------------|------------------|------------------|----------|

Or you can play the chords, which are the same as the pre-chorus.

The final chord of the song is Em.

Verse 1
Pre-Chorus
Chorus
Before Verse 2
Verse 2
Chorus
Bridge
Secondary Bridge
Chorus
Final Note
Related for Flawed Design tab