Song name
# A B C D E F G H I J K L M N O P Q R S T U V W X Y Z

Stabilo Boss - Dont Be So Cold tab

Band: Stabilo
Song:Don't Be So Cold
Part: Tab Intro
Tabbed By: Andrew Pike

This is an amazing song on Stabilo's newest Album. I made it myself so it might be a 
off, but I think it works pretty well. Go Stabilo

e---------------------------------------------------------------------------|
B---------------------------------------------------------------------------|
G---------------------------------------------------------------------------|
D------------------------------------------------5-5s4--5-4-5-4-2----2------|
A--5--2-1--0-1-2--5-5-4---9-9-7-5----------------------------------2--------|
E---------------------------------7-7-10--9-9-6-----------------------------|


e--------------------------------------------------------------------------|
B---5-9-9-9--7-9--10-10-10-10-10-10-10s9----12-12-12--10-7-7--5-3-2----2---|
G--------------------------------------------------------------------------|
D--------------------------------------------------------------------------|
A--------------------------------------------------------------------------|
E--------------------------------------------------------------------------|

e----------------------------------------------------------------------------|
B----------------------------------------------------------------------------|
G--2--1-1---4-2-1-1s2--------------------------------------------------------|
D-----------------------4--4-------------------------------------------------|
A--------------------------------5--4----------------------------------------|
E----------------------------------------------------------------------------|

Enjoy and please comment
Tap to rate this tab
 
# A B C D E F G H I J K L M N O P Q R S T U V W X Y Z